ISO-10303-21;
HEADER;
FILE_DESCRIPTION (( 'STEP AP203' ),
    '1' );
FILE_NAME ('UM ER 25 M.STEP',
    '2019-04-22T09:05:06',
    ( '' ),
    ( '' ),
    'SwSTEP 2.0',
    'SolidWorks 2014',
    '' );
FILE_SCHEMA (( 'CONFIG_CONTROL_DESIGN' ));
ENDSEC;

DATA;
#1 = EDGE_LOOP ( 'NONE', ( #178, #74, #187, #246 ) ) ;
#2 = CC_DESIGN_PERSON_AND_ORGANIZATION_ASSIGNMENT ( #295, #103, ( #247 ) ) ;
#3 = CONICAL_SURFACE ( 'NONE', #152, 17.50000000000001400, 0.7853981633975037900 ) ;
#4 = DATE_AND_TIME ( #64, #141 ) ;
#5 = ORIENTED_EDGE ( 'NONE', *, *, #59, .F. ) ;
#6 = CC_DESIGN_APPROVAL ( #285, ( #121 ) ) ;
#7 = AXIS2_PLACEMENT_3D ( 'NONE', #114, #322, #169 ) ;
#8 = DIRECTION ( 'NONE',  ( -0.0000000000000000000, -0.0000000000000000000, 1.000000000000000000 ) ) ;
#9 = CYLINDRICAL_SURFACE ( 'NONE', #98, 8.000000000000000000 ) ;
#10 = VERTEX_POINT ( 'NONE', #342 ) ;
#11 = EDGE_CURVE ( 'NONE', #296, #343, #255, .T. ) ;
#12 = CARTESIAN_POINT ( 'NONE',  ( 0.0000000000000000000, 0.0000000000000000000, 20.00000000000046200 ) ) ;
#13 = EDGE_LOOP ( 'NONE', ( #170, #70 ) ) ;
#14 = CARTESIAN_POINT ( 'NONE',  ( 0.0000000000000000000, 0.0000000000000000000, 80.11315735852554100 ) ) ;
#15 = PERSON_AND_ORGANIZATION ( #244, #184 ) ;
#16 = VERTEX_POINT ( 'NONE', #236 ) ;
#17 = CARTESIAN_POINT ( 'NONE',  ( 17.50000000000001400, 0.0000000000000000000, 80.11315735852554100 ) ) ;
#18 = DIRECTION ( 'NONE',  ( 1.000000000000000000, 0.0000000000000000000, 0.0000000000000000000 ) ) ;
#19 = CIRCLE ( 'NONE', #7, 17.50000000000001400 ) ;
#20 = EDGE_LOOP ( 'NONE', ( #294, #163, #192, #251 ) ) ;
#21 = AXIS2_PLACEMENT_3D ( 'NONE', #289, #268, #287 ) ;
#22 = LOCAL_TIME ( 14, 35, 6.000000000000000000, #83 ) ;
#23 = APPLICATION_PROTOCOL_DEFINITION ( 'international standard', 'config_control_design', 1994, #50 ) ;
#24 = VECTOR ( 'NONE', #286, 1000.000000000000000 ) ;
#25 = ORIENTED_EDGE ( 'NONE', *, *, #318, .F. ) ;
#26 = APPROVAL_ROLE ( '' ) ;
#27 = DATE_TIME_ROLE ( 'classification_date' ) ;
#28 = CALENDAR_DATE ( 2019, 22, 4 ) ;
#29 = EDGE_LOOP ( 'NONE', ( #190, #220 ) ) ;
#30 = CARTESIAN_POINT ( 'NONE',  ( 0.0000000000000000000, 0.0000000000000000000, 0.0000000000000000000 ) ) ;
#31 = ORIENTED_EDGE ( 'NONE', *, *, #300, .T. ) ;
#32 = CARTESIAN_POINT ( 'NONE',  ( -15.00000000000073500, 1.836970198721119900E-015, 0.0000000000000000000 ) ) ;
#33 = CARTESIAN_POINT ( 'NONE',  ( -17.50000000000001400, 0.0000000000000000000, 19.50000000000051900 ) ) ;
#34 = VERTEX_POINT ( 'NONE', #136 ) ;
#35 = DIRECTION ( 'NONE',  ( 1.000000000000000000, 0.0000000000000000000, 0.0000000000000000000 ) ) ;
#36 = DATE_AND_TIME ( #105, #177 ) ;
#37 = ORIENTED_EDGE ( 'NONE', *, *, #275, .T. ) ;
#38 = DIRECTION ( 'NONE',  ( 1.000000000000000000, 0.0000000000000000000, 0.0000000000000000000 ) ) ;
#39 = DIRECTION ( 'NONE',  ( -0.0000000000000000000, -0.0000000000000000000, 1.000000000000000000 ) ) ;
#40 = CC_DESIGN_PERSON_AND_ORGANIZATION_ASSIGNMENT ( #256, #151, ( #121 ) ) ;
#41 = CARTESIAN_POINT ( 'NONE',  ( 0.0000000000000000000, 0.0000000000000000000, 0.0000000000000000000 ) ) ;
#42 = VERTEX_POINT ( 'NONE', #200 ) ;
#43 = CONICAL_SURFACE ( 'NONE', #73, 15.00000000000073500, 1.047197551196582100 ) ;
#44 = VERTEX_POINT ( 'NONE', #292 ) ;
#45 = CC_DESIGN_PERSON_AND_ORGANIZATION_ASSIGNMENT ( #112, #66, ( #131 ) ) ;
#46 = PERSON_AND_ORGANIZATION ( #244, #184 ) ;
#47 = CIRCLE ( 'NONE', #81, 17.50000000000001400 ) ;
#48 = AXIS2_PLACEMENT_3D ( 'NONE', #269, #327, #173 ) ;
#49 = DIRECTION ( 'NONE',  ( -0.0000000000000000000, -0.0000000000000000000, 1.000000000000000000 ) ) ;
#50 = APPLICATION_CONTEXT ( 'configuration controlled 3d designs of mechanical parts and assemblies' ) ;
#51 = CARTESIAN_POINT ( 'NONE',  ( 17.50000000000001400, 2.143131898507869800E-015, 19.50000000000051900 ) ) ;
#52 = ORIENTED_EDGE ( 'NONE', *, *, #258, .F. ) ;
#53 = CARTESIAN_POINT ( 'NONE',  ( 0.0000000000000000000, 0.0000000000000000000, 20.00000000000046200 ) ) ;
#54 = AXIS2_PLACEMENT_3D ( 'NONE', #199, #345, #171 ) ;
#55 = ADVANCED_FACE ( 'NONE', ( #120 ), #43, .T. ) ;
#56 = DIRECTION ( 'NONE',  ( -0.0000000000000000000, -0.0000000000000000000, 1.000000000000000000 ) ) ;
#57 = EDGE_CURVE ( 'NONE', #183, #108, #201, .T. ) ;
#58 = LOCAL_TIME ( 14, 35, 6.000000000000000000, #130 ) ;
#59 = EDGE_CURVE ( 'NONE', #16, #261, #92, .T. ) ;
#60 = DIRECTION ( 'NONE',  ( 1.000000000000000000, 0.0000000000000000000, 0.0000000000000000000 ) ) ;
#61 = VECTOR ( 'NONE', #210, 1000.000000000000000 ) ;
#62 = ORIENTED_EDGE ( 'NONE', *, *, #331, .F. ) ;
#63 = LINE ( 'NONE', #33, #100 ) ;
#64 = CALENDAR_DATE ( 2019, 22, 4 ) ;
#65 = CARTESIAN_POINT ( 'NONE',  ( 0.0000000000000000000, 0.0000000000000000000, 0.0000000000000000000 ) ) ;
#66 = PERSON_AND_ORGANIZATION_ROLE ( 'design_owner' ) ;
#67 = ADVANCED_FACE ( 'NONE', ( #185, #129 ), #140, .F. ) ;
#68 = PERSON_AND_ORGANIZATION_ROLE ( 'design_supplier' ) ;
#69 = CIRCLE ( 'NONE', #93, 8.000000000000000000 ) ;
#70 = ORIENTED_EDGE ( 'NONE', *, *, #335, .T. ) ;
#71 = APPROVAL ( #279, 'UNSPECIFIED' ) ;
#72 = PERSON_AND_ORGANIZATION ( #244, #184 ) ;
#73 = AXIS2_PLACEMENT_3D ( 'NONE', #88, #87, #38 ) ;
#74 = ORIENTED_EDGE ( 'NONE', *, *, #209, .T. ) ;
#75 = CIRCLE ( 'NONE', #223, 17.00000000000001400 ) ;
#76 = DIRECTION ( 'NONE',  ( 1.000000000000000000, 0.0000000000000000000, 0.0000000000000000000 ) ) ;
#77 = CIRCLE ( 'NONE', #281, 15.00000000000073500 ) ;
#78 = DESIGN_CONTEXT ( 'detailed design', #50, 'design' ) ;
#79 = DIRECTION ( 'NONE',  ( -1.000000000000000000, 0.0000000000000000000, -0.0000000000000000000 ) ) ;
#80 = CARTESIAN_POINT ( 'NONE',  ( 0.0000000000000000000, 0.0000000000000000000, 19.50000000000051900 ) ) ;
#81 = AXIS2_PLACEMENT_3D ( 'NONE', #191, #260, #35 ) ;
#82 = ADVANCED_FACE ( 'NONE', ( #205 ), #309, .T. ) ;
#83 = COORDINATED_UNIVERSAL_TIME_OFFSET ( 5, 30, .AHEAD. ) ;
#84 = DIRECTION ( 'NONE',  ( -1.000000000000000000, 0.0000000000000000000, 0.0000000000000000000 ) ) ;
#85 = CARTESIAN_POINT ( 'NONE',  ( 0.0000000000000000000, 0.0000000000000000000, 19.50000000000051900 ) ) ;
#86 = DIRECTION ( 'NONE',  ( -0.0000000000000000000, -0.0000000000000000000, 1.000000000000000000 ) ) ;
#87 = DIRECTION ( 'NONE',  ( -0.0000000000000000000, -0.0000000000000000000, 1.000000000000000000 ) ) ;
#88 = CARTESIAN_POINT ( 'NONE',  ( 0.0000000000000000000, 0.0000000000000000000, 0.0000000000000000000 ) ) ;
#89 = LINE ( 'NONE', #51, #24 ) ;
#90 = DIRECTION ( 'NONE',  ( -0.0000000000000000000, -0.0000000000000000000, 1.000000000000000000 ) ) ;
#91 = ORIENTED_EDGE ( 'NONE', *, *, #341, .F. ) ;
#92 = CIRCLE ( 'NONE', #48, 7.999999999999998200 ) ;
#93 = AXIS2_PLACEMENT_3D ( 'NONE', #65, #49, #248 ) ;
#94 = CYLINDRICAL_SURFACE ( 'NONE', #313, 17.50000000000001400 ) ;
#95 = LOCAL_TIME ( 14, 35, 6.000000000000000000, #168 ) ;
#96 = ORIENTED_EDGE ( 'NONE', *, *, #57, .T. ) ;
#97 = PRODUCT_DEFINITION_SHAPE ( 'NONE', 'NONE',  #121 ) ;
#98 = AXIS2_PLACEMENT_3D ( 'NONE', #14, #56, #179 ) ;
#99 = DATE_TIME_ROLE ( 'creation_date' ) ;
#100 = VECTOR ( 'NONE', #166, 1000.000000000000000 ) ;
#101 = MECHANICAL_CONTEXT ( 'NONE', #153, 'mechanical' ) ;
#102 = ORIENTED_EDGE ( 'NONE', *, *, #258, .T. ) ;
#103 = PERSON_AND_ORGANIZATION_ROLE ( 'classification_officer' ) ;
#104 = CIRCLE ( 'NONE', #221, 17.00000000000001400 ) ;
#105 = CALENDAR_DATE ( 2019, 22, 4 ) ;
#106 = ORIENTED_EDGE ( 'NONE', *, *, #186, .T. ) ;
#107 = CARTESIAN_POINT ( 'NONE',  ( -8.000000000000000000, 9.797174393178825700E-016, 80.11315735852554100 ) ) ;
#108 = VERTEX_POINT ( 'NONE', #118 ) ;
#109 = CARTESIAN_POINT ( 'NONE',  ( -17.50000000000001400, 2.143131898507869800E-015, 1.443375672973701300 ) ) ;
#110 =( GEOMETRIC_REPRESENTATION_CONTEXT ( 3 ) GLOBAL_UNCERTAINTY_ASSIGNED_CONTEXT ( ( #339 ) ) GLOBAL_UNIT_ASSIGNED_CONTEXT ( ( #323, #174, #272 ) ) REPRESENTATION_CONTEXT ( 'NONE', 'WORKASPACE' ) );
#111 = DIRECTION ( 'NONE',  ( -0.0000000000000000000, -0.0000000000000000000, 1.000000000000000000 ) ) ;
#112 = PERSON_AND_ORGANIZATION ( #244, #184 ) ;
#113 = VERTEX_POINT ( 'NONE', #320 ) ;
#114 = CARTESIAN_POINT ( 'NONE',  ( 0.0000000000000000000, 0.0000000000000000000, 19.50000000000051900 ) ) ;
#115 = PLANE ( 'NONE',  #288 ) ;
#116 = DIRECTION ( 'NONE',  ( 0.0000000000000000000, 0.0000000000000000000, -1.000000000000000000 ) ) ;
#117 = ORIENTED_EDGE ( 'NONE', *, *, #324, .T. ) ;
#118 = CARTESIAN_POINT ( 'NONE',  ( -17.50000000000001400, 2.143131898507869800E-015, 19.50000000000051900 ) ) ;
#119 = ORIENTED_EDGE ( 'NONE', *, *, #59, .T. ) ;
#120 = FACE_OUTER_BOUND ( 'NONE', #146, .T. ) ;
#121 = PRODUCT_DEFINITION ( 'UNKNOWN', '', #197, #78 ) ;
#122 = APPROVAL ( #155, 'UNSPECIFIED' ) ;
#123 = ADVANCED_FACE ( 'NONE', ( #230 ), #3, .T. ) ;
#124 = ADVANCED_FACE ( 'NONE', ( #252 ), #94, .T. ) ;
#125 = APPROVAL_STATUS ( 'not_yet_approved' ) ;
#126 = APPROVAL_ROLE ( '' ) ;
#127 = ORIENTED_EDGE ( 'NONE', *, *, #341, .T. ) ;
#128 = VECTOR ( 'NONE', #308, 1000.000000000000000 ) ;
#129 = FACE_BOUND ( 'NONE', #13, .T. ) ;
#130 = COORDINATED_UNIVERSAL_TIME_OFFSET ( 5, 30, .AHEAD. ) ;
#131 = PRODUCT ( 'UM ER 25 M', 'UM ER 25 M', '', ( #101 ) ) ;
#132 = DIRECTION ( 'NONE',  ( 1.000000000000000000, 0.0000000000000000000, 0.0000000000000000000 ) ) ;
#133 = DIRECTION ( 'NONE',  ( 1.000000000000000000, 0.0000000000000000000, 0.0000000000000000000 ) ) ;
#134 = VERTEX_POINT ( 'NONE', #226 ) ;
#135 = CARTESIAN_POINT ( 'NONE',  ( 0.0000000000000000000, 0.0000000000000000000, 20.00000000000046200 ) ) ;
#136 = CARTESIAN_POINT ( 'NONE',  ( 17.00000000000001400, 2.112515728529186000E-015, 20.00000000000046200 ) ) ;
#137 = CARTESIAN_POINT ( 'NONE',  ( 0.0000000000000000000, 0.0000000000000000000, 80.11315735852554100 ) ) ;
#138 = DIRECTION ( 'NONE',  ( -0.0000000000000000000, -0.0000000000000000000, 1.000000000000000000 ) ) ;
#139 = CARTESIAN_POINT ( 'NONE',  ( 0.0000000000000000000, 0.0000000000000000000, 0.0000000000000000000 ) ) ;
#140 = PLANE ( 'NONE',  #167 ) ;
#141 = LOCAL_TIME ( 14, 35, 6.000000000000000000, #219 ) ;
#142 = CARTESIAN_POINT ( 'NONE',  ( 0.0000000000000000000, 15.00000000000073500, 0.0000000000000000000 ) ) ;
#143 = CARTESIAN_POINT ( 'NONE',  ( 0.0000000000000000000, 0.0000000000000000000, 0.0000000000000000000 ) ) ;
#144 = VECTOR ( 'NONE', #150, 1000.000000000000000 ) ;
#145 = ADVANCED_FACE ( 'NONE', ( #306, #333 ), #115, .F. ) ;
#146 = EDGE_LOOP ( 'NONE', ( #52, #31, #127, #338 ) ) ;
#147 = MANIFOLD_SOLID_BREP ( 'Revolve1', #273 ) ;
#148 = APPROVAL_DATE_TIME ( #233, #71 ) ;
#149 = EDGE_LOOP ( 'NONE', ( #346, #96, #234, #212 ) ) ;
#150 = DIRECTION ( 'NONE',  ( -0.0000000000000000000, -0.0000000000000000000, 1.000000000000000000 ) ) ;
#151 = PERSON_AND_ORGANIZATION_ROLE ( 'creator' ) ;
#152 = AXIS2_PLACEMENT_3D ( 'NONE', #85, #116, #232 ) ;
#153 = APPLICATION_CONTEXT ( 'configuration controlled 3d designs of mechanical parts and assemblies' ) ;
#154 = FACE_OUTER_BOUND ( 'NONE', #217, .T. ) ;
#155 = APPROVAL_STATUS ( 'not_yet_approved' ) ;
#156 = FACE_OUTER_BOUND ( 'NONE', #265, .T. ) ;
#157 = APPROVAL_PERSON_ORGANIZATION ( #245, #71, #349 ) ;
#158 = EDGE_LOOP ( 'NONE', ( #259, #25, #227, #119 ) ) ;
#159 = EDGE_CURVE ( 'NONE', #134, #34, #104, .T. ) ;
#160 = EDGE_CURVE ( 'NONE', #108, #343, #278, .T. ) ;
#161 = DIRECTION ( 'NONE',  ( 0.0000000000000000000, 0.0000000000000000000, -1.000000000000000000 ) ) ;
#162 = FACE_OUTER_BOUND ( 'NONE', #20, .T. ) ;
#163 = ORIENTED_EDGE ( 'NONE', *, *, #159, .F. ) ;
#164 = DIRECTION ( 'NONE',  ( 1.000000000000000000, 0.0000000000000000000, 0.0000000000000000000 ) ) ;
#165 = CC_DESIGN_PERSON_AND_ORGANIZATION_ASSIGNMENT ( #15, #68, ( #197 ) ) ;
#166 = DIRECTION ( 'NONE',  ( -0.7071067811865867600, 0.0000000000000000000, -0.7071067811865081600 ) ) ;
#167 = AXIS2_PLACEMENT_3D ( 'NONE', #142, #316, #60 ) ;
#168 = COORDINATED_UNIVERSAL_TIME_OFFSET ( 5, 30, .AHEAD. ) ;
#169 = DIRECTION ( 'NONE',  ( 1.000000000000000000, 0.0000000000000000000, 0.0000000000000000000 ) ) ;
#170 = ORIENTED_EDGE ( 'NONE', *, *, #318, .T. ) ;
#171 = DIRECTION ( 'NONE',  ( 1.000000000000000000, 0.0000000000000000000, 0.0000000000000000000 ) ) ;
#172 = VECTOR ( 'NONE', #235, 1000.000000000000000 ) ;
#173 = DIRECTION ( 'NONE',  ( 1.000000000000000000, 0.0000000000000000000, 0.0000000000000000000 ) ) ;
#174 =( NAMED_UNIT ( * ) PLANE_ANGLE_UNIT ( ) SI_UNIT ( $, .RADIAN. ) );
#175 = EDGE_CURVE ( 'NONE', #42, #261, #240, .T. ) ;
#176 = ORIENTED_EDGE ( 'NONE', *, *, #202, .F. ) ;
#177 = LOCAL_TIME ( 14, 35, 6.000000000000000000, #263 ) ;
#178 = ORIENTED_EDGE ( 'NONE', *, *, #57, .F. ) ;
#179 = DIRECTION ( 'NONE',  ( 1.000000000000000000, 0.0000000000000000000, 0.0000000000000000000 ) ) ;
#180 = ADVANCED_FACE ( 'NONE', ( #156 ), #284, .T. ) ;
#181 = LINE ( 'NONE', #32, #325 ) ;
#182 = CC_DESIGN_DATE_AND_TIME_ASSIGNMENT ( #317, #99, ( #121 ) ) ;
#183 = VERTEX_POINT ( 'NONE', #109 ) ;
#184 = ORGANIZATION ( 'UNSPECIFIED', 'UNSPECIFIED', '' ) ;
#185 = FACE_OUTER_BOUND ( 'NONE', #334, .T. ) ;
#186 = EDGE_CURVE ( 'NONE', #261, #16, #196, .T. ) ;
#187 = ORIENTED_EDGE ( 'NONE', *, *, #11, .T. ) ;
#188 = DIRECTION ( 'NONE',  ( 1.000000000000000000, 0.0000000000000000000, 0.0000000000000000000 ) ) ;
#189 = CARTESIAN_POINT ( 'NONE',  ( 0.0000000000000000000, 0.0000000000000000000, 80.11315735852554100 ) ) ;
#190 = ORIENTED_EDGE ( 'NONE', *, *, #159, .T. ) ;
#191 = CARTESIAN_POINT ( 'NONE',  ( 0.0000000000000000000, 0.0000000000000000000, 1.443375672973701300 ) ) ;
#192 = ORIENTED_EDGE ( 'NONE', *, *, #202, .T. ) ;
#193 = DIRECTION ( 'NONE',  ( -0.0000000000000000000, -0.0000000000000000000, 1.000000000000000000 ) ) ;
#194 = DIRECTION ( 'NONE',  ( 1.000000000000000000, 0.0000000000000000000, 0.0000000000000000000 ) ) ;
#195 = EDGE_CURVE ( 'NONE', #34, #134, #75, .T. ) ;
#196 = CIRCLE ( 'NONE', #270, 7.999999999999998200 ) ;
#197 = PRODUCT_DEFINITION_FORMATION_WITH_SPECIFIED_SOURCE ( 'ANY', '', #131, .NOT_KNOWN. ) ;
#198 = APPROVAL_DATE_TIME ( #282, #122 ) ;
#199 = CARTESIAN_POINT ( 'NONE',  ( 0.0000000000000000000, 0.0000000000000000000, 1.443375672973701300 ) ) ;
#200 = CARTESIAN_POINT ( 'NONE',  ( -8.000000000000000000, 9.797174393178825700E-016, 0.0000000000000000000 ) ) ;
#201 = LINE ( 'NONE', #267, #231 ) ;
#202 = EDGE_CURVE ( 'NONE', #134, #108, #63, .T. ) ;
#203 = CC_DESIGN_PERSON_AND_ORGANIZATION_ASSIGNMENT ( #72, #249, ( #197 ) ) ;
#204 = ORIENTED_EDGE ( 'NONE', *, *, #340, .F. ) ;
#205 = FACE_OUTER_BOUND ( 'NONE', #149, .T. ) ;
#206 = CC_DESIGN_APPROVAL ( #122, ( #247 ) ) ;
#207 = ADVANCED_FACE ( 'NONE', ( #218 ), #242, .F. ) ;
#208 = APPROVAL_PERSON_ORGANIZATION ( #290, #122, #126 ) ;
#209 = EDGE_CURVE ( 'NONE', #183, #296, #47, .T. ) ;
#210 = DIRECTION ( 'NONE',  ( 0.8660254037844308300, 0.0000000000000000000, 0.5000000000000135400 ) ) ;
#211 = DIRECTION ( 'NONE',  ( 0.0000000000000000000, 0.0000000000000000000, 1.000000000000000000 ) ) ;
#212 = ORIENTED_EDGE ( 'NONE', *, *, #11, .F. ) ;
#213 = LINE ( 'NONE', #332, #61 ) ;
#214 = ORIENTED_EDGE ( 'NONE', *, *, #335, .F. ) ;
#215 = CC_DESIGN_DATE_AND_TIME_ASSIGNMENT ( #4, #27, ( #247 ) ) ;
#216 = AXIS2_PLACEMENT_3D ( 'NONE', #137, #8, #133 ) ;
#217 = EDGE_LOOP ( 'NONE', ( #214, #329, #106, #62 ) ) ;
#218 = FACE_OUTER_BOUND ( 'NONE', #158, .T. ) ;
#219 = COORDINATED_UNIVERSAL_TIME_OFFSET ( 5, 30, .AHEAD. ) ;
#220 = ORIENTED_EDGE ( 'NONE', *, *, #195, .T. ) ;
#221 = AXIS2_PLACEMENT_3D ( 'NONE', #53, #307, #76 ) ;
#222 = DIRECTION ( 'NONE',  ( -0.0000000000000000000, -0.0000000000000000000, 1.000000000000000000 ) ) ;
#223 = AXIS2_PLACEMENT_3D ( 'NONE', #135, #224, #164 ) ;
#224 = DIRECTION ( 'NONE',  ( -0.0000000000000000000, -0.0000000000000000000, 1.000000000000000000 ) ) ;
#225 = LINE ( 'NONE', #298, #144 ) ;
#226 = CARTESIAN_POINT ( 'NONE',  ( -17.00000000000001400, 0.0000000000000000000, 20.00000000000046200 ) ) ;
#227 = ORIENTED_EDGE ( 'NONE', *, *, #331, .T. ) ;
#228 = AXIS2_PLACEMENT_3D ( 'NONE', #293, #90, #18 ) ;
#229 = DIRECTION ( 'NONE',  ( -0.8660254037844308300, 1.060575238724897300E-016, 0.5000000000000135400 ) ) ;
#230 = FACE_OUTER_BOUND ( 'NONE', #302, .T. ) ;
#231 = VECTOR ( 'NONE', #138, 1000.000000000000000 ) ;
#232 = DIRECTION ( 'NONE',  ( -1.000000000000000000, 0.0000000000000000000, 0.0000000000000000000 ) ) ;
#233 = DATE_AND_TIME ( #304, #22 ) ;
#234 = ORIENTED_EDGE ( 'NONE', *, *, #303, .F. ) ;
#235 = DIRECTION ( 'NONE',  ( -0.0000000000000000000, -0.0000000000000000000, 1.000000000000000000 ) ) ;
#236 = CARTESIAN_POINT ( 'NONE',  ( 7.999999999999998200, 0.0000000000000000000, 20.00000000000046200 ) ) ;
#237 = CARTESIAN_POINT ( 'NONE',  ( 17.50000000000001400, 0.0000000000000000000, 19.50000000000051900 ) ) ;
#238 = CARTESIAN_POINT ( 'NONE',  ( 0.0000000000000000000, 17.00000000000001400, 20.00000000000046200 ) ) ;
#239 = CIRCLE ( 'NONE', #274, 15.00000000000073500 ) ;
#240 = LINE ( 'NONE', #107, #128 ) ;
#241 = ADVANCED_BREP_SHAPE_REPRESENTATION ( 'UM ER 25 M', ( #147, #243 ), #110 ) ;
#242 = CYLINDRICAL_SURFACE ( 'NONE', #216, 8.000000000000000000 ) ;
#243 = AXIS2_PLACEMENT_3D ( 'NONE', #143, #211, #299 ) ;
#244 = PERSON ( 'UNSPECIFIED', 'UNSPECIFIED', 'UNSPECIFIED', ('UNSPECIFIED'), ('UNSPECIFIED'), ('UNSPECIFIED') ) ;
#245 = PERSON_AND_ORGANIZATION ( #244, #184 ) ;
#246 = ORIENTED_EDGE ( 'NONE', *, *, #160, .F. ) ;
#247 = SECURITY_CLASSIFICATION ( '', '', #253 ) ;
#248 = DIRECTION ( 'NONE',  ( 1.000000000000000000, 0.0000000000000000000, 0.0000000000000000000 ) ) ;
#249 = PERSON_AND_ORGANIZATION_ROLE ( 'creator' ) ;
#250 = CIRCLE ( 'NONE', #54, 17.50000000000001400 ) ;
#251 = ORIENTED_EDGE ( 'NONE', *, *, #160, .T. ) ;
#252 = FACE_OUTER_BOUND ( 'NONE', #1, .T. ) ;
#253 = SECURITY_CLASSIFICATION_LEVEL ( 'unclassified' ) ;
#254 = PRODUCT_RELATED_PRODUCT_CATEGORY ( 'detail', '', ( #131 ) ) ;
#255 = LINE ( 'NONE', #17, #172 ) ;
#256 = PERSON_AND_ORGANIZATION ( #244, #184 ) ;
#257 = ORIENTED_EDGE ( 'NONE', *, *, #195, .F. ) ;
#258 = EDGE_CURVE ( 'NONE', #10, #183, #181, .T. ) ;
#259 = ORIENTED_EDGE ( 'NONE', *, *, #175, .F. ) ;
#260 = DIRECTION ( 'NONE',  ( -0.0000000000000000000, -0.0000000000000000000, 1.000000000000000000 ) ) ;
#261 = VERTEX_POINT ( 'NONE', #315 ) ;
#262 = DIRECTION ( 'NONE',  ( -0.0000000000000000000, -0.0000000000000000000, 1.000000000000000000 ) ) ;
#263 = COORDINATED_UNIVERSAL_TIME_OFFSET ( 5, 30, .AHEAD. ) ;
#264 = CARTESIAN_POINT ( 'NONE',  ( 17.50000000000001400, 0.0000000000000000000, 1.443375672973701300 ) ) ;
#265 = EDGE_LOOP ( 'NONE', ( #117, #102, #204, #91 ) ) ;
#266 = AXIS2_PLACEMENT_3D ( 'NONE', #30, #193, #188 ) ;
#267 = CARTESIAN_POINT ( 'NONE',  ( -17.50000000000001400, 2.143131898507869800E-015, 80.11315735852554100 ) ) ;
#268 = DIRECTION ( 'NONE',  ( -0.0000000000000000000, -0.0000000000000000000, 1.000000000000000000 ) ) ;
#269 = CARTESIAN_POINT ( 'NONE',  ( 0.0000000000000000000, 0.0000000000000000000, 20.00000000000046200 ) ) ;
#270 = AXIS2_PLACEMENT_3D ( 'NONE', #12, #262, #314 ) ;
#271 = CC_DESIGN_SECURITY_CLASSIFICATION ( #247, ( #197 ) ) ;
#272 =( NAMED_UNIT ( * ) SI_UNIT ( $, .STERADIAN. ) SOLID_ANGLE_UNIT ( ) );
#273 = CLOSED_SHELL ( 'NONE', ( #123, #82, #180, #330, #207, #67, #55, #124, #291, #145 ) ) ;
#274 = AXIS2_PLACEMENT_3D ( 'NONE', #41, #86, #194 ) ;
#275 = EDGE_CURVE ( 'NONE', #34, #343, #89, .T. ) ;
#276 = CC_DESIGN_APPROVAL ( #71, ( #197 ) ) ;
#277 = SHAPE_DEFINITION_REPRESENTATION ( #97, #241 ) ;
#278 = CIRCLE ( 'NONE', #347, 17.50000000000001400 ) ;
#279 = APPROVAL_STATUS ( 'not_yet_approved' ) ;
#280 = ORIENTED_EDGE ( 'NONE', *, *, #303, .T. ) ;
#281 = AXIS2_PLACEMENT_3D ( 'NONE', #139, #39, #344 ) ;
#282 = DATE_AND_TIME ( #348, #58 ) ;
#283 = DIRECTION ( 'NONE',  ( 1.000000000000000000, 0.0000000000000000000, 0.0000000000000000000 ) ) ;
#284 = CONICAL_SURFACE ( 'NONE', #266, 15.00000000000073500, 1.047197551196582100 ) ;
#285 = APPROVAL ( #125, 'UNSPECIFIED' ) ;
#286 = DIRECTION ( 'NONE',  ( 0.7071067811865867600, 8.659560562355413600E-017, -0.7071067811865081600 ) ) ;
#287 = DIRECTION ( 'NONE',  ( 1.000000000000000000, 0.0000000000000000000, 0.0000000000000000000 ) ) ;
#288 = AXIS2_PLACEMENT_3D ( 'NONE', #238, #161, #79 ) ;
#289 = CARTESIAN_POINT ( 'NONE',  ( 0.0000000000000000000, 0.0000000000000000000, 0.0000000000000000000 ) ) ;
#290 = PERSON_AND_ORGANIZATION ( #244, #184 ) ;
#291 = ADVANCED_FACE ( 'NONE', ( #162 ), #301, .T. ) ;
#292 = CARTESIAN_POINT ( 'NONE',  ( 8.000000000000000000, 0.0000000000000000000, 0.0000000000000000000 ) ) ;
#293 = CARTESIAN_POINT ( 'NONE',  ( 0.0000000000000000000, 0.0000000000000000000, 80.11315735852554100 ) ) ;
#294 = ORIENTED_EDGE ( 'NONE', *, *, #275, .F. ) ;
#295 = PERSON_AND_ORGANIZATION ( #244, #184 ) ;
#296 = VERTEX_POINT ( 'NONE', #264 ) ;
#297 = AXIS2_PLACEMENT_3D ( 'NONE', #80, #321, #84 ) ;
#298 = CARTESIAN_POINT ( 'NONE',  ( 8.000000000000000000, 0.0000000000000000000, 80.11315735852554100 ) ) ;
#299 = DIRECTION ( 'NONE',  ( 1.000000000000000000, 0.0000000000000000000, 0.0000000000000000000 ) ) ;
#300 = EDGE_CURVE ( 'NONE', #10, #113, #239, .T. ) ;
#301 = CONICAL_SURFACE ( 'NONE', #297, 17.50000000000001400, 0.7853981633975037900 ) ;
#302 = EDGE_LOOP ( 'NONE', ( #257, #37, #280, #176 ) ) ;
#303 = EDGE_CURVE ( 'NONE', #343, #108, #19, .T. ) ;
#304 = CALENDAR_DATE ( 2019, 22, 4 ) ;
#305 = EDGE_LOOP ( 'NONE', ( #5, #312 ) ) ;
#306 = FACE_BOUND ( 'NONE', #305, .T. ) ;
#307 = DIRECTION ( 'NONE',  ( -0.0000000000000000000, -0.0000000000000000000, 1.000000000000000000 ) ) ;
#308 = DIRECTION ( 'NONE',  ( -0.0000000000000000000, -0.0000000000000000000, 1.000000000000000000 ) ) ;
#309 = CYLINDRICAL_SURFACE ( 'NONE', #228, 17.50000000000001400 ) ;
#310 = CIRCLE ( 'NONE', #21, 8.000000000000000000 ) ;
#311 = CARTESIAN_POINT ( 'NONE',  ( 0.0000000000000000000, 0.0000000000000000000, 19.50000000000051900 ) ) ;
#312 = ORIENTED_EDGE ( 'NONE', *, *, #186, .F. ) ;
#313 = AXIS2_PLACEMENT_3D ( 'NONE', #189, #222, #132 ) ;
#314 = DIRECTION ( 'NONE',  ( 1.000000000000000000, 0.0000000000000000000, 0.0000000000000000000 ) ) ;
#315 = CARTESIAN_POINT ( 'NONE',  ( -7.999999999999998200, 9.797174393178823700E-016, 20.00000000000046200 ) ) ;
#316 = DIRECTION ( 'NONE',  ( 0.0000000000000000000, -0.0000000000000000000, 1.000000000000000000 ) ) ;
#317 = DATE_AND_TIME ( #28, #95 ) ;
#318 = EDGE_CURVE ( 'NONE', #44, #42, #310, .T. ) ;
#319 = ORIENTED_EDGE ( 'NONE', *, *, #324, .F. ) ;
#320 = CARTESIAN_POINT ( 'NONE',  ( 15.00000000000073500, 0.0000000000000000000, 0.0000000000000000000 ) ) ;
#321 = DIRECTION ( 'NONE',  ( 0.0000000000000000000, 0.0000000000000000000, -1.000000000000000000 ) ) ;
#322 = DIRECTION ( 'NONE',  ( -0.0000000000000000000, -0.0000000000000000000, 1.000000000000000000 ) ) ;
#323 =( LENGTH_UNIT ( ) NAMED_UNIT ( * ) SI_UNIT ( .MILLI., .METRE. ) );
#324 = EDGE_CURVE ( 'NONE', #113, #10, #77, .T. ) ;
#325 = VECTOR ( 'NONE', #229, 1000.000000000000000 ) ;
#326 = ORIENTED_EDGE ( 'NONE', *, *, #300, .F. ) ;
#327 = DIRECTION ( 'NONE',  ( -0.0000000000000000000, -0.0000000000000000000, 1.000000000000000000 ) ) ;
#328 = APPROVAL_DATE_TIME ( #36, #285 ) ;
#329 = ORIENTED_EDGE ( 'NONE', *, *, #175, .T. ) ;
#330 = ADVANCED_FACE ( 'NONE', ( #154 ), #9, .F. ) ;
#331 = EDGE_CURVE ( 'NONE', #44, #16, #225, .T. ) ;
#332 = CARTESIAN_POINT ( 'NONE',  ( 15.00000000000073500, 0.0000000000000000000, 0.0000000000000000000 ) ) ;
#333 = FACE_OUTER_BOUND ( 'NONE', #29, .T. ) ;
#334 = EDGE_LOOP ( 'NONE', ( #319, #326 ) ) ;
#335 = EDGE_CURVE ( 'NONE', #42, #44, #69, .T. ) ;
#336 = APPLICATION_PROTOCOL_DEFINITION ( 'international standard', 'config_control_design', 1994, #153 ) ;
#337 = APPROVAL_PERSON_ORGANIZATION ( #46, #285, #26 ) ;
#338 = ORIENTED_EDGE ( 'NONE', *, *, #209, .F. ) ;
#339 = UNCERTAINTY_MEASURE_WITH_UNIT (LENGTH_MEASURE( 1.000000000000000100E-005 ), #323, 'distance_accuracy_value', 'NONE');
#340 = EDGE_CURVE ( 'NONE', #296, #183, #250, .T. ) ;
#341 = EDGE_CURVE ( 'NONE', #113, #296, #213, .T. ) ;
#342 = CARTESIAN_POINT ( 'NONE',  ( -15.00000000000073500, 1.990051048614494700E-015, 0.0000000000000000000 ) ) ;
#343 = VERTEX_POINT ( 'NONE', #237 ) ;
#344 = DIRECTION ( 'NONE',  ( 1.000000000000000000, 0.0000000000000000000, 0.0000000000000000000 ) ) ;
#345 = DIRECTION ( 'NONE',  ( -0.0000000000000000000, -0.0000000000000000000, 1.000000000000000000 ) ) ;
#346 = ORIENTED_EDGE ( 'NONE', *, *, #340, .T. ) ;
#347 = AXIS2_PLACEMENT_3D ( 'NONE', #311, #111, #283 ) ;
#348 = CALENDAR_DATE ( 2019, 22, 4 ) ;
#349 = APPROVAL_ROLE ( '' ) ;
ENDSEC;
END-ISO-10303-21;
