ISO-10303-21;
HEADER;
FILE_DESCRIPTION (( 'STEP AP203' ),
    '1' );
FILE_NAME ('TAP COLLET ER 25G  4.0 X 3.15.STEP',
    '2019-04-09T09:46:48',
    ( '' ),
    ( '' ),
    'SwSTEP 2.0',
    'SolidWorks 2014',
    '' );
FILE_SCHEMA (( 'CONFIG_CONTROL_DESIGN' ));
ENDSEC;

DATA;
#1 = COORDINATED_UNIVERSAL_TIME_OFFSET ( 5, 30, .AHEAD. ) ;
#2 = FACE_OUTER_BOUND ( 'NONE', #28, .T. ) ;
#3 = ORIENTED_EDGE ( 'NONE', *, *, #325, .T. ) ;
#4 = EDGE_CURVE ( 'NONE', #333, #67, #229, .T. ) ;
#5 = ORIENTED_EDGE ( 'NONE', *, *, #298, .T. ) ;
#6 = DIRECTION ( 'NONE',  ( 1.000000000000000000, 0.0000000000000000000, 0.0000000000000000000 ) ) ;
#7 = FACE_OUTER_BOUND ( 'NONE', #311, .T. ) ;
#8 = LOCAL_TIME ( 15, 16, 48.00000000000000000, #83 ) ;
#9 = PERSON_AND_ORGANIZATION_ROLE ( 'design_owner' ) ;
#10 = LINE ( 'NONE', #144, #170 ) ;
#11 = DIRECTION ( 'NONE',  ( 1.000000000000000000, 0.0000000000000000000, 0.0000000000000000000 ) ) ;
#12 = CALENDAR_DATE ( 2019, 9, 4 ) ;
#13 = ORGANIZATION ( 'UNSPECIFIED', 'UNSPECIFIED', '' ) ;
#14 = ORIENTED_EDGE ( 'NONE', *, *, #303, .F. ) ;
#15 = DIRECTION ( 'NONE',  ( 1.000000000000000000, 0.0000000000000000000, 0.0000000000000000000 ) ) ;
#16 = PRODUCT_DEFINITION ( 'UNKNOWN', '', #337, #362 ) ;
#17 = DIRECTION ( 'NONE',  ( -1.000000000000000000, 0.0000000000000000000, 0.0000000000000000000 ) ) ;
#18 = DIRECTION ( 'NONE',  ( -0.0000000000000000000, -0.0000000000000000000, 1.000000000000000000 ) ) ;
#19 = VERTEX_POINT ( 'NONE', #203 ) ;
#20 = AXIS2_PLACEMENT_3D ( 'NONE', #278, #165, #266 ) ;
#21 = DIRECTION ( 'NONE',  ( -0.4999999999999957800, 6.123233995736714300E-017, 0.8660254037844410400 ) ) ;
#22 = ORIENTED_EDGE ( 'NONE', *, *, #283, .F. ) ;
#23 = PERSON_AND_ORGANIZATION ( #290, #13 ) ;
#24 = CARTESIAN_POINT ( 'NONE',  ( 0.0000000000000000000, 0.0000000000000000000, 4.742050807568884500 ) ) ;
#25 = CIRCLE ( 'NONE', #177, 13.00000000000000000 ) ;
#26 = VERTEX_POINT ( 'NONE', #299 ) ;
#27 = DIRECTION ( 'NONE',  ( 1.000000000000000000, 0.0000000000000000000, 0.0000000000000000000 ) ) ;
#28 = EDGE_LOOP ( 'NONE', ( #252, #140, #312, #5 ) ) ;
#29 = CONICAL_SURFACE ( 'NONE', #381, 10.26217568973925200, 0.5235987755982940400 ) ;
#30 = DIRECTION ( 'NONE',  ( 1.000000000000000000, 0.0000000000000000000, 0.0000000000000000000 ) ) ;
#31 = VERTEX_POINT ( 'NONE', #226 ) ;
#32 = CARTESIAN_POINT ( 'NONE',  ( -10.26217568973925200, 1.256754061072695800E-015, 0.0000000000000000000 ) ) ;
#33 = CIRCLE ( 'NONE', #105, 11.00000000000000000 ) ;
#34 = DIRECTION ( 'NONE',  ( 0.0000000000000000000, 0.0000000000000000000, -1.000000000000000000 ) ) ;
#35 = APPLICATION_PROTOCOL_DEFINITION ( 'international standard', 'config_control_design', 1994, #304 ) ;
#36 = VERTEX_POINT ( 'NONE', #169 ) ;
#37 = CARTESIAN_POINT ( 'NONE',  ( -11.00000000000000000, 1.347111479062088400E-015, 101.8074564848000400 ) ) ;
#38 = CIRCLE ( 'NONE', #372, 0.4000000000000010200 ) ;
#39 = CARTESIAN_POINT ( 'NONE',  ( 9.012603057622234500, 0.0000000000000000000, 33.60000000000000100 ) ) ;
#40 = ORIENTED_EDGE ( 'NONE', *, *, #291, .T. ) ;
#41 = CARTESIAN_POINT ( 'NONE',  ( 0.0000000000000000000, 0.0000000000000000000, 34.00000000000000000 ) ) ;
#42 = CARTESIAN_POINT ( 'NONE',  ( 13.00000000000000000, 0.0000000000000000000, 4.742050807568884500 ) ) ;
#43 = CC_DESIGN_APPROVAL ( #357, ( #337 ) ) ;
#44 = COORDINATED_UNIVERSAL_TIME_OFFSET ( 5, 30, .AHEAD. ) ;
#45 = ORIENTED_EDGE ( 'NONE', *, *, #328, .F. ) ;
#46 = CIRCLE ( 'NONE', #227, 11.00000000000000000 ) ;
#47 = VERTEX_POINT ( 'NONE', #48 ) ;
#48 = CARTESIAN_POINT ( 'NONE',  ( -11.00000000000000000, 1.347111479062088400E-015, 4.742050807568884500 ) ) ;
#49 = EDGE_LOOP ( 'NONE', ( #187, #53, #84, #373 ) ) ;
#50 = DIRECTION ( 'NONE',  ( 1.000000000000000000, 0.0000000000000000000, 0.0000000000000000000 ) ) ;
#51 = ADVANCED_FACE ( 'NONE', ( #239 ), #354, .T. ) ;
#52 = CIRCLE ( 'NONE', #209, 0.3999999999999975800 ) ;
#53 = ORIENTED_EDGE ( 'NONE', *, *, #257, .T. ) ;
#54 = LOCAL_TIME ( 15, 16, 48.00000000000000000, #138 ) ;
#55 = DIRECTION ( 'NONE',  ( -1.000000000000000000, 0.0000000000000000000, 0.0000000000000000000 ) ) ;
#56 = FACE_OUTER_BOUND ( 'NONE', #57, .T. ) ;
#57 = EDGE_LOOP ( 'NONE', ( #182, #300, #294, #376 ) ) ;
#58 = DIRECTION ( 'NONE',  ( -0.0000000000000000000, -0.0000000000000000000, 1.000000000000000000 ) ) ;
#59 = CC_DESIGN_APPROVAL ( #166, ( #151 ) ) ;
#60 = CARTESIAN_POINT ( 'NONE',  ( 0.0000000000000000000, 0.0000000000000000000, 33.60000000000000100 ) ) ;
#61 = DIRECTION ( 'NONE',  ( 0.0000000000000000000, 0.0000000000000000000, -1.000000000000000000 ) ) ;
#62 =( NAMED_UNIT ( * ) PLANE_ANGLE_UNIT ( ) SI_UNIT ( $, .RADIAN. ) );
#63 = EDGE_LOOP ( 'NONE', ( #161, #111, #114, #152 ) ) ;
#64 = ADVANCED_FACE ( 'NONE', ( #270 ), #350, .F. ) ;
#65 = ORIENTED_EDGE ( 'NONE', *, *, #261, .F. ) ;
#66 = APPROVAL_ROLE ( '' ) ;
#67 = VERTEX_POINT ( 'NONE', #204 ) ;
#68 = APPROVAL_DATE_TIME ( #148, #357 ) ;
#69 = CARTESIAN_POINT ( 'NONE',  ( 0.0000000000000000000, 0.0000000000000000000, 7.842050807568890400 ) ) ;
#70 = CC_DESIGN_PERSON_AND_ORGANIZATION_ASSIGNMENT ( #382, #186, ( #337 ) ) ;
#71 = EDGE_LOOP ( 'NONE', ( #104, #157 ) ) ;
#72 = DIRECTION ( 'NONE',  ( 1.000000000000000000, 0.0000000000000000000, 0.0000000000000000000 ) ) ;
#73 = EDGE_LOOP ( 'NONE', ( #132, #262, #88, #313 ) ) ;
#74 = SHAPE_DEFINITION_REPRESENTATION ( #366, #363 ) ;
#75 = CARTESIAN_POINT ( 'NONE',  ( -9.012603057622234500, 1.103725548650271700E-015, 33.60000000000000100 ) ) ;
#76 = EDGE_LOOP ( 'NONE', ( #167, #3, #361, #14 ) ) ;
#77 = DIRECTION ( 'NONE',  ( -0.0000000000000000000, -0.0000000000000000000, 1.000000000000000000 ) ) ;
#78 = APPROVAL_PERSON_ORGANIZATION ( #159, #357, #95 ) ;
#79 = AXIS2_PLACEMENT_3D ( 'NONE', #253, #327, #310 ) ;
#80 = CARTESIAN_POINT ( 'NONE',  ( 0.0000000000000000000, 0.0000000000000000000, 4.742050807568884500 ) ) ;
#81 = CC_DESIGN_PERSON_AND_ORGANIZATION_ASSIGNMENT ( #23, #9, ( #142 ) ) ;
#82 = CARTESIAN_POINT ( 'NONE',  ( 0.0000000000000000000, 0.0000000000000000000, 0.0000000000000000000 ) ) ;
#83 = COORDINATED_UNIVERSAL_TIME_OFFSET ( 5, 30, .AHEAD. ) ;
#84 = ORIENTED_EDGE ( 'NONE', *, *, #261, .T. ) ;
#85 = VERTEX_POINT ( 'NONE', #383 ) ;
#86 = VECTOR ( 'NONE', #21, 1000.000000000000200 ) ;
#87 = DIRECTION ( 'NONE',  ( 1.224646799147353200E-016, 1.000000000000000000, 0.0000000000000000000 ) ) ;
#88 = ORIENTED_EDGE ( 'NONE', *, *, #4, .F. ) ;
#89 = DIRECTION ( 'NONE',  ( 1.000000000000000000, 0.0000000000000000000, 0.0000000000000000000 ) ) ;
#90 = APPROVAL_STATUS ( 'not_yet_approved' ) ;
#91 = LOCAL_TIME ( 15, 16, 48.00000000000000000, #179 ) ;
#92 = FACE_OUTER_BOUND ( 'NONE', #73, .T. ) ;
#93 = DIRECTION ( 'NONE',  ( -0.0000000000000000000, -0.0000000000000000000, 1.000000000000000000 ) ) ;
#94 = EDGE_LOOP ( 'NONE', ( #233, #384 ) ) ;
#95 = APPROVAL_ROLE ( '' ) ;
#96 = LINE ( 'NONE', #248, #243 ) ;
#97 = DIRECTION ( 'NONE',  ( 1.000000000000000000, 0.0000000000000000000, 0.0000000000000000000 ) ) ;
#98 = EDGE_CURVE ( 'NONE', #36, #205, #38, .T. ) ;
#99 = CARTESIAN_POINT ( 'NONE',  ( 0.0000000000000000000, 13.03657776635556700, 7.842050807568883300 ) ) ;
#100 = LINE ( 'NONE', #375, #126 ) ;
#101 = EDGE_LOOP ( 'NONE', ( #185, #242 ) ) ;
#102 = ADVANCED_FACE ( 'NONE', ( #198 ), #380, .T. ) ;
#103 =( LENGTH_UNIT ( ) NAMED_UNIT ( * ) SI_UNIT ( .MILLI., .METRE. ) );
#104 = ORIENTED_EDGE ( 'NONE', *, *, #4, .T. ) ;
#105 = AXIS2_PLACEMENT_3D ( 'NONE', #364, #145, #301 ) ;
#106 = DIRECTION ( 'NONE',  ( -0.0000000000000000000, -0.0000000000000000000, 1.000000000000000000 ) ) ;
#107 = DIRECTION ( 'NONE',  ( -0.0000000000000000000, -0.0000000000000000000, 1.000000000000000000 ) ) ;
#108 = ADVANCED_FACE ( 'NONE', ( #7 ), #29, .T. ) ;
#109 = DIRECTION ( 'NONE',  ( 1.000000000000000000, 0.0000000000000000000, 0.0000000000000000000 ) ) ;
#110 = CARTESIAN_POINT ( 'NONE',  ( 0.0000000000000000000, 0.0000000000000000000, 7.842050807568876200 ) ) ;
#111 = ORIENTED_EDGE ( 'NONE', *, *, #255, .T. ) ;
#112 = CARTESIAN_POINT ( 'NONE',  ( 0.0000000000000000000, 0.0000000000000000000, 0.0000000000000000000 ) ) ;
#113 = ORIENTED_EDGE ( 'NONE', *, *, #276, .T. ) ;
#114 = ORIENTED_EDGE ( 'NONE', *, *, #268, .T. ) ;
#115 = AXIS2_PLACEMENT_3D ( 'NONE', #112, #275, #72 ) ;
#116 = AXIS2_PLACEMENT_3D ( 'NONE', #82, #387, #206 ) ;
#117 = ADVANCED_FACE ( 'NONE', ( #124 ), #199, .T. ) ;
#118 = APPROVAL_DATE_TIME ( #202, #166 ) ;
#119 = DIRECTION ( 'NONE',  ( -0.0000000000000000000, -0.0000000000000000000, 1.000000000000000000 ) ) ;
#120 = AXIS2_PLACEMENT_3D ( 'NONE', #60, #200, #236 ) ;
#121 = ADVANCED_FACE ( 'NONE', ( #56 ), #188, .T. ) ;
#122 = CC_DESIGN_SECURITY_CLASSIFICATION ( #151, ( #337 ) ) ;
#123 = ORIENTED_EDGE ( 'NONE', *, *, #268, .F. ) ;
#124 = FACE_OUTER_BOUND ( 'NONE', #316, .T. ) ;
#125 = DIRECTION ( 'NONE',  ( 1.000000000000000000, 0.0000000000000000000, 0.0000000000000000000 ) ) ;
#126 = VECTOR ( 'NONE', #338, 1000.000000000000000 ) ;
#127 = AXIS2_PLACEMENT_3D ( 'NONE', #69, #343, #6 ) ;
#128 = CARTESIAN_POINT ( 'NONE',  ( -9.012603057622234500, 1.127980121063915600E-015, 34.00000000000000000 ) ) ;
#129 = APPROVAL_PERSON_ORGANIZATION ( #211, #166, #224 ) ;
#130 = CC_DESIGN_PERSON_AND_ORGANIZATION_ASSIGNMENT ( #293, #244, ( #337 ) ) ;
#131 = CARTESIAN_POINT ( 'NONE',  ( 0.0000000000000000000, 0.0000000000000000000, 4.742050807568884500 ) ) ;
#132 = ORIENTED_EDGE ( 'NONE', *, *, #265, .T. ) ;
#133 = DIRECTION ( 'NONE',  ( 1.000000000000000000, 0.0000000000000000000, 0.0000000000000000000 ) ) ;
#134 = DIRECTION ( 'NONE',  ( 1.000000000000000000, 0.0000000000000000000, 0.0000000000000000000 ) ) ;
#135 = CONICAL_SURFACE ( 'NONE', #216, 13.03657776635556700, 0.1396263401595396500 ) ;
#136 = DIRECTION ( 'NONE',  ( -0.0000000000000000000, -0.0000000000000000000, 1.000000000000000000 ) ) ;
#137 = CARTESIAN_POINT ( 'NONE',  ( 0.0000000000000000000, 0.0000000000000000000, 33.60000000000000100 ) ) ;
#138 = COORDINATED_UNIVERSAL_TIME_OFFSET ( 5, 30, .AHEAD. ) ;
#139 = AXIS2_PLACEMENT_3D ( 'NONE', #99, #250, #125 ) ;
#140 = ORIENTED_EDGE ( 'NONE', *, *, #325, .F. ) ;
#141 = ORIENTED_EDGE ( 'NONE', *, *, #234, .T. ) ;
#142 = PRODUCT ( 'TAP COLLET ER 25G  4.0 X 3.15', 'TAP COLLET ER 25G  4.0 X 3.15', '', ( #178 ) ) ;
#143 = VERTEX_POINT ( 'NONE', #237 ) ;
#144 = CARTESIAN_POINT ( 'NONE',  ( 13.03657776635556700, 1.596520323340289600E-015, 7.842050807568876200 ) ) ;
#145 = DIRECTION ( 'NONE',  ( -0.0000000000000000000, -0.0000000000000000000, 1.000000000000000000 ) ) ;
#146 = CIRCLE ( 'NONE', #79, 9.408710285118862900 ) ;
#147 = ADVANCED_FACE ( 'NONE', ( #174 ), #347, .F. ) ;
#148 = DATE_AND_TIME ( #231, #305 ) ;
#149 = AXIS2_PLACEMENT_3D ( 'NONE', #41, #136, #27 ) ;
#150 = CLOSED_SHELL ( 'NONE', ( #121, #51, #117, #164, #147, #108, #323, #102, #342, #153, #201, #64 ) ) ;
#151 = SECURITY_CLASSIFICATION ( '', '', #197 ) ;
#152 = ORIENTED_EDGE ( 'NONE', *, *, #315, .F. ) ;
#153 = ADVANCED_FACE ( 'NONE', ( #2 ), #135, .T. ) ;
#154 = CARTESIAN_POINT ( 'NONE',  ( 0.0000000000000000000, 13.00000000000000000, 4.742050807568884500 ) ) ;
#155 = AXIS2_PLACEMENT_3D ( 'NONE', #351, #107, #341 ) ;
#156 = DIRECTION ( 'NONE',  ( -0.0000000000000000000, -0.0000000000000000000, 1.000000000000000000 ) ) ;
#157 = ORIENTED_EDGE ( 'NONE', *, *, #283, .T. ) ;
#158 = DIRECTION ( 'NONE',  ( 1.000000000000000000, 0.0000000000000000000, 0.0000000000000000000 ) ) ;
#159 = PERSON_AND_ORGANIZATION ( #290, #13 ) ;
#160 = PERSON_AND_ORGANIZATION_ROLE ( 'creator' ) ;
#161 = ORIENTED_EDGE ( 'NONE', *, *, #309, .F. ) ;
#162 = CARTESIAN_POINT ( 'NONE',  ( 0.0000000000000000000, 0.0000000000000000000, 33.65566924038402900 ) ) ;
#163 = CONICAL_SURFACE ( 'NONE', #215, 10.26217568973925200, 0.5235987755982940400 ) ;
#164 = ADVANCED_FACE ( 'NONE', ( #92 ), #163, .T. ) ;
#165 = DIRECTION ( 'NONE',  ( 0.0000000000000000000, 0.0000000000000000000, 1.000000000000000000 ) ) ;
#166 = APPROVAL ( #90, 'UNSPECIFIED' ) ;
#167 = ORIENTED_EDGE ( 'NONE', *, *, #98, .F. ) ;
#168 = PERSON_AND_ORGANIZATION ( #290, #13 ) ;
#169 = CARTESIAN_POINT ( 'NONE',  ( -9.408710285118862900, 0.0000000000000000000, 33.65566924038402900 ) ) ;
#170 = VECTOR ( 'NONE', #175, 1000.000000000000000 ) ;
#171 = ORIENTED_EDGE ( 'NONE', *, *, #195, .F. ) ;
#172 = AXIS2_PLACEMENT_3D ( 'NONE', #131, #223, #30 ) ;
#173 = AXIS2_PLACEMENT_3D ( 'NONE', #213, #219, #134 ) ;
#174 = FACE_OUTER_BOUND ( 'NONE', #101, .T. ) ;
#175 = DIRECTION ( 'NONE',  ( 0.1391731009600587800, 1.704378926181474000E-017, -0.9902680687415712500 ) ) ;
#176 = FACE_OUTER_BOUND ( 'NONE', #71, .T. ) ;
#177 = AXIS2_PLACEMENT_3D ( 'NONE', #24, #18, #89 ) ;
#178 = MECHANICAL_CONTEXT ( 'NONE', #304, 'mechanical' ) ;
#179 = COORDINATED_UNIVERSAL_TIME_OFFSET ( 5, 30, .AHEAD. ) ;
#180 = CC_DESIGN_PERSON_AND_ORGANIZATION_ASSIGNMENT ( #168, #160, ( #16 ) ) ;
#181 = CIRCLE ( 'NONE', #155, 10.26217568973925200 ) ;
#182 = ORIENTED_EDGE ( 'NONE', *, *, #309, .T. ) ;
#183 = PERSON_AND_ORGANIZATION_ROLE ( 'classification_officer' ) ;
#184 = AXIS2_PLACEMENT_3D ( 'NONE', #154, #34, #194 ) ;
#185 = ORIENTED_EDGE ( 'NONE', *, *, #265, .F. ) ;
#186 = PERSON_AND_ORGANIZATION_ROLE ( 'creator' ) ;
#187 = ORIENTED_EDGE ( 'NONE', *, *, #291, .F. ) ;
#188 = TOROIDAL_SURFACE ( 'NONE', #286, 9.012603057622234500, 0.4000000000000009700 ) ;
#189 = AXIS2_PLACEMENT_3D ( 'NONE', #263, #106, #50 ) ;
#190 = ORIENTED_EDGE ( 'NONE', *, *, #298, .F. ) ;
#191 = FACE_BOUND ( 'NONE', #386, .T. ) ;
#192 = DIRECTION ( 'NONE',  ( -0.0000000000000000000, -0.0000000000000000000, 1.000000000000000000 ) ) ;
#193 = AXIS2_PLACEMENT_3D ( 'NONE', #162, #192, #97 ) ;
#194 = DIRECTION ( 'NONE',  ( -1.000000000000000000, 0.0000000000000000000, -0.0000000000000000000 ) ) ;
#195 = EDGE_CURVE ( 'NONE', #143, #67, #296, .T. ) ;
#196 = CIRCLE ( 'NONE', #127, 11.00000000000000000 ) ;
#197 = SECURITY_CLASSIFICATION_LEVEL ( 'unclassified' ) ;
#198 = FACE_OUTER_BOUND ( 'NONE', #49, .T. ) ;
#199 = CYLINDRICAL_SURFACE ( 'NONE', #335, 11.00000000000000000 ) ;
#200 = DIRECTION ( 'NONE',  ( -0.0000000000000000000, -0.0000000000000000000, 1.000000000000000000 ) ) ;
#201 = ADVANCED_FACE ( 'NONE', ( #208 ), #378, .T. ) ;
#202 = DATE_AND_TIME ( #273, #359 ) ;
#203 = CARTESIAN_POINT ( 'NONE',  ( -11.00000000000000000, 1.347111479062088400E-015, 7.842050807568890400 ) ) ;
#204 = CARTESIAN_POINT ( 'NONE',  ( -13.00000000000000000, 1.592040838891559100E-015, 4.742050807568884500 ) ) ;
#205 = VERTEX_POINT ( 'NONE', #128 ) ;
#206 = DIRECTION ( 'NONE',  ( 1.000000000000000000, 0.0000000000000000000, 0.0000000000000000000 ) ) ;
#207 = CARTESIAN_POINT ( 'NONE',  ( 0.0000000000000000000, 0.0000000000000000000, 7.842050807568876200 ) ) ;
#208 = FACE_OUTER_BOUND ( 'NONE', #76, .T. ) ;
#209 = AXIS2_PLACEMENT_3D ( 'NONE', #39, #336, #61 ) ;
#210 = EDGE_LOOP ( 'NONE', ( #190, #123 ) ) ;
#211 = PERSON_AND_ORGANIZATION ( #290, #13 ) ;
#212 = AXIS2_PLACEMENT_3D ( 'NONE', #308, #374, #109 ) ;
#213 = CARTESIAN_POINT ( 'NONE',  ( 0.0000000000000000000, 0.0000000000000000000, 7.842050807568876200 ) ) ;
#214 = CC_DESIGN_PERSON_AND_ORGANIZATION_ASSIGNMENT ( #222, #183, ( #151 ) ) ;
#215 = AXIS2_PLACEMENT_3D ( 'NONE', #377, #297, #133 ) ;
#216 = AXIS2_PLACEMENT_3D ( 'NONE', #207, #306, #55 ) ;
#217 = APPLICATION_PROTOCOL_DEFINITION ( 'international standard', 'config_control_design', 1994, #339 ) ;
#218 = ORIENTED_EDGE ( 'NONE', *, *, #328, .T. ) ;
#219 = DIRECTION ( 'NONE',  ( -0.0000000000000000000, -0.0000000000000000000, 1.000000000000000000 ) ) ;
#220 = FACE_OUTER_BOUND ( 'NONE', #210, .T. ) ;
#221 = CC_DESIGN_DATE_AND_TIME_ASSIGNMENT ( #240, #314, ( #16 ) ) ;
#222 = PERSON_AND_ORGANIZATION ( #290, #13 ) ;
#223 = DIRECTION ( 'NONE',  ( -0.0000000000000000000, -0.0000000000000000000, 1.000000000000000000 ) ) ;
#224 = APPROVAL_ROLE ( '' ) ;
#225 = EDGE_LOOP ( 'NONE', ( #113, #254 ) ) ;
#226 = CARTESIAN_POINT ( 'NONE',  ( 13.03657776635556700, 1.596520323340289600E-015, 7.842050807568876200 ) ) ;
#227 = AXIS2_PLACEMENT_3D ( 'NONE', #379, #93, #158 ) ;
#228 = VERTEX_POINT ( 'NONE', #282 ) ;
#229 = CIRCLE ( 'NONE', #318, 13.00000000000000000 ) ;
#230 = DIRECTION ( 'NONE',  ( -1.000000000000000000, 1.224646799147353200E-016, 0.0000000000000000000 ) ) ;
#231 = CALENDAR_DATE ( 2019, 9, 4 ) ;
#232 = CC_DESIGN_DATE_AND_TIME_ASSIGNMENT ( #284, #331, ( #151 ) ) ;
#233 = ORIENTED_EDGE ( 'NONE', *, *, #295, .F. ) ;
#234 = EDGE_CURVE ( 'NONE', #143, #228, #264, .T. ) ;
#235 = DIRECTION ( 'NONE',  ( 0.0000000000000000000, 0.0000000000000000000, -1.000000000000000000 ) ) ;
#236 = DIRECTION ( 'NONE',  ( 1.000000000000000000, 0.0000000000000000000, 0.0000000000000000000 ) ) ;
#237 = CARTESIAN_POINT ( 'NONE',  ( -10.26217568973925200, 1.424397449982127500E-015, 0.0000000000000000000 ) ) ;
#238 = CARTESIAN_POINT ( 'NONE',  ( 9.012603057622234500, 0.0000000000000000000, 34.00000000000000000 ) ) ;
#239 = FACE_OUTER_BOUND ( 'NONE', #63, .T. ) ;
#240 = DATE_AND_TIME ( #317, #8 ) ;
#241 = LINE ( 'NONE', #37, #360 ) ;
#242 = ORIENTED_EDGE ( 'NONE', *, *, #234, .F. ) ;
#243 = VECTOR ( 'NONE', #340, 1000.000000000000000 ) ;
#244 = PERSON_AND_ORGANIZATION_ROLE ( 'design_supplier' ) ;
#245 = CARTESIAN_POINT ( 'NONE',  ( 10.26217568973925200, 0.0000000000000000000, 0.0000000000000000000 ) ) ;
#246 = DIRECTION ( 'NONE',  ( 0.4999999999999957800, 0.0000000000000000000, 0.8660254037844410400 ) ) ;
#247 = CARTESIAN_POINT ( 'NONE',  ( 11.00000000000000000, 0.0000000000000000000, 7.842050807568890400 ) ) ;
#248 = CARTESIAN_POINT ( 'NONE',  ( -13.03657776635556700, 0.0000000000000000000, 7.842050807568876200 ) ) ;
#249 = APPROVAL_DATE_TIME ( #324, #258 ) ;
#250 = DIRECTION ( 'NONE',  ( 0.0000000000000000000, -0.0000000000000000000, 1.000000000000000000 ) ) ;
#251 = CARTESIAN_POINT ( 'NONE',  ( 11.00000000000000000, 0.0000000000000000000, 4.742050807568884500 ) ) ;
#252 = ORIENTED_EDGE ( 'NONE', *, *, #255, .F. ) ;
#253 = CARTESIAN_POINT ( 'NONE',  ( 0.0000000000000000000, 0.0000000000000000000, 33.65566924038402900 ) ) ;
#254 = ORIENTED_EDGE ( 'NONE', *, *, #303, .T. ) ;
#255 = EDGE_CURVE ( 'NONE', #85, #31, #10, .T. ) ;
#256 = APPROVAL_PERSON_ORGANIZATION ( #332, #258, #66 ) ;
#257 = EDGE_CURVE ( 'NONE', #47, #330, #46, .T. ) ;
#258 = APPROVAL ( #279, 'UNSPECIFIED' ) ;
#259 = VERTEX_POINT ( 'NONE', #247 ) ;
#260 = DIRECTION ( 'NONE',  ( -1.000000000000000000, 0.0000000000000000000, -0.0000000000000000000 ) ) ;
#261 = EDGE_CURVE ( 'NONE', #330, #259, #100, .T. ) ;
#262 = ORIENTED_EDGE ( 'NONE', *, *, #195, .T. ) ;
#263 = CARTESIAN_POINT ( 'NONE',  ( 0.0000000000000000000, 0.0000000000000000000, 7.842050807568876200 ) ) ;
#264 = CIRCLE ( 'NONE', #116, 10.26217568973925200 ) ;
#265 = EDGE_CURVE ( 'NONE', #228, #143, #181, .T. ) ;
#266 = DIRECTION ( 'NONE',  ( 1.000000000000000000, 0.0000000000000000000, 0.0000000000000000000 ) ) ;
#267 = DIRECTION ( 'NONE',  ( -0.0000000000000000000, -0.0000000000000000000, 1.000000000000000000 ) ) ;
#268 = EDGE_CURVE ( 'NONE', #31, #26, #280, .T. ) ;
#269 = DIRECTION ( 'NONE',  ( 1.000000000000000000, 0.0000000000000000000, 0.0000000000000000000 ) ) ;
#270 = FACE_OUTER_BOUND ( 'NONE', #225, .T. ) ;
#271 = APPROVAL_STATUS ( 'not_yet_approved' ) ;
#272 = ORIENTED_EDGE ( 'NONE', *, *, #295, .T. ) ;
#273 = CALENDAR_DATE ( 2019, 9, 4 ) ;
#274 = DIRECTION ( 'NONE',  ( 1.000000000000000000, 0.0000000000000000000, 0.0000000000000000000 ) ) ;
#275 = DIRECTION ( 'NONE',  ( 0.0000000000000000000, -0.0000000000000000000, 1.000000000000000000 ) ) ;
#276 = EDGE_CURVE ( 'NONE', #349, #205, #334, .T. ) ;
#277 =( GEOMETRIC_REPRESENTATION_CONTEXT ( 3 ) GLOBAL_UNCERTAINTY_ASSIGNED_CONTEXT ( ( #370 ) ) GLOBAL_UNIT_ASSIGNED_CONTEXT ( ( #103, #62, #281 ) ) REPRESENTATION_CONTEXT ( 'NONE', 'WORKASPACE' ) );
#278 = CARTESIAN_POINT ( 'NONE',  ( 0.0000000000000000000, 0.0000000000000000000, 0.0000000000000000000 ) ) ;
#279 = APPROVAL_STATUS ( 'not_yet_approved' ) ;
#280 = CIRCLE ( 'NONE', #173, 13.03657776635556700 ) ;
#281 =( NAMED_UNIT ( * ) SI_UNIT ( $, .STERADIAN. ) SOLID_ANGLE_UNIT ( ) );
#282 = CARTESIAN_POINT ( 'NONE',  ( 10.26217568973925200, 0.0000000000000000000, 0.0000000000000000000 ) ) ;
#283 = EDGE_CURVE ( 'NONE', #67, #333, #25, .T. ) ;
#284 = DATE_AND_TIME ( #369, #54 ) ;
#285 = EDGE_CURVE ( 'NONE', #19, #259, #196, .T. ) ;
#286 = AXIS2_PLACEMENT_3D ( 'NONE', #137, #77, #269 ) ;
#287 = DIRECTION ( 'NONE',  ( 0.0000000000000000000, 0.0000000000000000000, -1.000000000000000000 ) ) ;
#288 = ORIENTED_EDGE ( 'NONE', *, *, #285, .T. ) ;
#289 = AXIS2_PLACEMENT_3D ( 'NONE', #353, #287, #260 ) ;
#290 = PERSON ( 'UNSPECIFIED', 'UNSPECIFIED', 'UNSPECIFIED', ('UNSPECIFIED'), ('UNSPECIFIED'), ('UNSPECIFIED') ) ;
#291 = EDGE_CURVE ( 'NONE', #47, #19, #241, .T. ) ;
#292 = CC_DESIGN_APPROVAL ( #258, ( #16 ) ) ;
#293 = PERSON_AND_ORGANIZATION ( #290, #13 ) ;
#294 = ORIENTED_EDGE ( 'NONE', *, *, #276, .F. ) ;
#295 = EDGE_CURVE ( 'NONE', #330, #47, #345, .T. ) ;
#296 = LINE ( 'NONE', #32, #86 ) ;
#297 = DIRECTION ( 'NONE',  ( -0.0000000000000000000, -0.0000000000000000000, 1.000000000000000000 ) ) ;
#298 = EDGE_CURVE ( 'NONE', #26, #31, #365, .T. ) ;
#299 = CARTESIAN_POINT ( 'NONE',  ( -13.03657776635556700, 0.0000000000000000000, 7.842050807568876200 ) ) ;
#300 = ORIENTED_EDGE ( 'NONE', *, *, #98, .T. ) ;
#301 = DIRECTION ( 'NONE',  ( 1.000000000000000000, 0.0000000000000000000, 0.0000000000000000000 ) ) ;
#302 = CIRCLE ( 'NONE', #193, 9.408710285118862900 ) ;
#303 = EDGE_CURVE ( 'NONE', #205, #349, #348, .T. ) ;
#304 = APPLICATION_CONTEXT ( 'configuration controlled 3d designs of mechanical parts and assemblies' ) ;
#305 = LOCAL_TIME ( 15, 16, 48.00000000000000000, #1 ) ;
#306 = DIRECTION ( 'NONE',  ( 0.0000000000000000000, 0.0000000000000000000, -1.000000000000000000 ) ) ;
#307 = PLANE ( 'NONE',  #139 ) ;
#308 = CARTESIAN_POINT ( 'NONE',  ( 0.0000000000000000000, 0.0000000000000000000, 34.00000000000000000 ) ) ;
#309 = EDGE_CURVE ( 'NONE', #85, #36, #302, .T. ) ;
#310 = DIRECTION ( 'NONE',  ( 1.000000000000000000, 0.0000000000000000000, 0.0000000000000000000 ) ) ;
#311 = EDGE_LOOP ( 'NONE', ( #171, #141, #352, #22 ) ) ;
#312 = ORIENTED_EDGE ( 'NONE', *, *, #315, .T. ) ;
#313 = ORIENTED_EDGE ( 'NONE', *, *, #367, .F. ) ;
#314 = DATE_TIME_ROLE ( 'creation_date' ) ;
#315 = EDGE_CURVE ( 'NONE', #36, #26, #96, .T. ) ;
#316 = EDGE_LOOP ( 'NONE', ( #272, #40, #45, #65 ) ) ;
#317 = CALENDAR_DATE ( 2019, 9, 4 ) ;
#318 = AXIS2_PLACEMENT_3D ( 'NONE', #80, #156, #385 ) ;
#319 = CARTESIAN_POINT ( 'NONE',  ( 0.0000000000000000000, 0.0000000000000000000, 101.8074564848000400 ) ) ;
#320 = MANIFOLD_SOLID_BREP ( 'Revolve1', #150 ) ;
#321 = AXIS2_PLACEMENT_3D ( 'NONE', #110, #235, #17 ) ;
#322 = PRODUCT_RELATED_PRODUCT_CATEGORY ( 'detail', '', ( #142 ) ) ;
#323 = ADVANCED_FACE ( 'NONE', ( #329, #176 ), #368, .F. ) ;
#324 = DATE_AND_TIME ( #12, #91 ) ;
#325 = EDGE_CURVE ( 'NONE', #36, #85, #146, .T. ) ;
#326 = LINE ( 'NONE', #245, #371 ) ;
#327 = DIRECTION ( 'NONE',  ( -0.0000000000000000000, -0.0000000000000000000, 1.000000000000000000 ) ) ;
#328 = EDGE_CURVE ( 'NONE', #259, #19, #33, .T. ) ;
#329 = FACE_BOUND ( 'NONE', #94, .T. ) ;
#330 = VERTEX_POINT ( 'NONE', #251 ) ;
#331 = DATE_TIME_ROLE ( 'classification_date' ) ;
#332 = PERSON_AND_ORGANIZATION ( #290, #13 ) ;
#333 = VERTEX_POINT ( 'NONE', #42 ) ;
#334 = CIRCLE ( 'NONE', #149, 9.012603057622234500 ) ;
#335 = AXIS2_PLACEMENT_3D ( 'NONE', #319, #119, #11 ) ;
#336 = DIRECTION ( 'NONE',  ( 0.0000000000000000000, -1.000000000000000000, 0.0000000000000000000 ) ) ;
#337 = PRODUCT_DEFINITION_FORMATION_WITH_SPECIFIED_SOURCE ( 'ANY', '', #142, .NOT_KNOWN. ) ;
#338 = DIRECTION ( 'NONE',  ( -0.0000000000000000000, -0.0000000000000000000, 1.000000000000000000 ) ) ;
#339 = APPLICATION_CONTEXT ( 'configuration controlled 3d designs of mechanical parts and assemblies' ) ;
#340 = DIRECTION ( 'NONE',  ( -0.1391731009600587800, 0.0000000000000000000, -0.9902680687415712500 ) ) ;
#341 = DIRECTION ( 'NONE',  ( 1.000000000000000000, 0.0000000000000000000, 0.0000000000000000000 ) ) ;
#342 = ADVANCED_FACE ( 'NONE', ( #220, #191 ), #307, .F. ) ;
#343 = DIRECTION ( 'NONE',  ( -0.0000000000000000000, -0.0000000000000000000, 1.000000000000000000 ) ) ;
#344 = DIRECTION ( 'NONE',  ( -0.0000000000000000000, -0.0000000000000000000, 1.000000000000000000 ) ) ;
#345 = CIRCLE ( 'NONE', #172, 11.00000000000000000 ) ;
#346 = CARTESIAN_POINT ( 'NONE',  ( 0.0000000000000000000, 0.0000000000000000000, 101.8074564848000400 ) ) ;
#347 = PLANE ( 'NONE',  #115 ) ;
#348 = CIRCLE ( 'NONE', #212, 9.012603057622234500 ) ;
#349 = VERTEX_POINT ( 'NONE', #238 ) ;
#350 = PLANE ( 'NONE',  #289 ) ;
#351 = CARTESIAN_POINT ( 'NONE',  ( 0.0000000000000000000, 0.0000000000000000000, 0.0000000000000000000 ) ) ;
#352 = ORIENTED_EDGE ( 'NONE', *, *, #367, .T. ) ;
#353 = CARTESIAN_POINT ( 'NONE',  ( 0.0000000000000000000, 9.012603057622234500, 34.00000000000000000 ) ) ;
#354 = CONICAL_SURFACE ( 'NONE', #321, 13.03657776635556700, 0.1396263401595396500 ) ;
#355 = EDGE_CURVE ( 'NONE', #85, #349, #52, .T. ) ;
#356 = AXIS2_PLACEMENT_3D ( 'NONE', #346, #344, #15 ) ;
#357 = APPROVAL ( #271, 'UNSPECIFIED' ) ;
#358 = CARTESIAN_POINT ( 'NONE',  ( 0.0000000000000000000, 0.0000000000000000000, 0.0000000000000000000 ) ) ;
#359 = LOCAL_TIME ( 15, 16, 48.00000000000000000, #44 ) ;
#360 = VECTOR ( 'NONE', #267, 1000.000000000000000 ) ;
#361 = ORIENTED_EDGE ( 'NONE', *, *, #355, .T. ) ;
#362 = DESIGN_CONTEXT ( 'detailed design', #339, 'design' ) ;
#363 = ADVANCED_BREP_SHAPE_REPRESENTATION ( 'TAP COLLET ER 25G  4.0 X 3.15', ( #320, #20 ), #277 ) ;
#364 = CARTESIAN_POINT ( 'NONE',  ( 0.0000000000000000000, 0.0000000000000000000, 7.842050807568890400 ) ) ;
#365 = CIRCLE ( 'NONE', #189, 13.03657776635556700 ) ;
#366 = PRODUCT_DEFINITION_SHAPE ( 'NONE', 'NONE',  #16 ) ;
#367 = EDGE_CURVE ( 'NONE', #228, #333, #326, .T. ) ;
#368 = PLANE ( 'NONE',  #184 ) ;
#369 = CALENDAR_DATE ( 2019, 9, 4 ) ;
#370 = UNCERTAINTY_MEASURE_WITH_UNIT (LENGTH_MEASURE( 1.000000000000000100E-005 ), #103, 'distance_accuracy_value', 'NONE');
#371 = VECTOR ( 'NONE', #246, 1000.000000000000200 ) ;
#372 = AXIS2_PLACEMENT_3D ( 'NONE', #75, #87, #230 ) ;
#373 = ORIENTED_EDGE ( 'NONE', *, *, #285, .F. ) ;
#374 = DIRECTION ( 'NONE',  ( -0.0000000000000000000, -0.0000000000000000000, 1.000000000000000000 ) ) ;
#375 = CARTESIAN_POINT ( 'NONE',  ( 11.00000000000000000, 0.0000000000000000000, 101.8074564848000400 ) ) ;
#376 = ORIENTED_EDGE ( 'NONE', *, *, #355, .F. ) ;
#377 = CARTESIAN_POINT ( 'NONE',  ( 0.0000000000000000000, 0.0000000000000000000, 0.0000000000000000000 ) ) ;
#378 = TOROIDAL_SURFACE ( 'NONE', #120, 9.012603057622234500, 0.4000000000000009700 ) ;
#379 = CARTESIAN_POINT ( 'NONE',  ( 0.0000000000000000000, 0.0000000000000000000, 4.742050807568884500 ) ) ;
#380 = CYLINDRICAL_SURFACE ( 'NONE', #356, 11.00000000000000000 ) ;
#381 = AXIS2_PLACEMENT_3D ( 'NONE', #358, #58, #274 ) ;
#382 = PERSON_AND_ORGANIZATION ( #290, #13 ) ;
#383 = CARTESIAN_POINT ( 'NONE',  ( 9.408710285118862900, 1.374377508408924700E-015, 33.65566924038402900 ) ) ;
#384 = ORIENTED_EDGE ( 'NONE', *, *, #257, .F. ) ;
#385 = DIRECTION ( 'NONE',  ( 1.000000000000000000, 0.0000000000000000000, 0.0000000000000000000 ) ) ;
#386 = EDGE_LOOP ( 'NONE', ( #218, #288 ) ) ;
#387 = DIRECTION ( 'NONE',  ( -0.0000000000000000000, -0.0000000000000000000, 1.000000000000000000 ) ) ;
ENDSEC;
END-ISO-10303-21;
