ISO-10303-21;
HEADER;
FILE_DESCRIPTION (( 'STEP AP203' ),
    '1' );
FILE_NAME ('TAP COLLET ER 25G  5.0  X 4.0.STEP',
    '2019-04-09T09:49:52',
    ( '' ),
    ( '' ),
    'SwSTEP 2.0',
    'SolidWorks 2014',
    '' );
FILE_SCHEMA (( 'CONFIG_CONTROL_DESIGN' ));
ENDSEC;

DATA;
#1 = APPROVAL_ROLE ( '' ) ;
#2 = CARTESIAN_POINT ( 'NONE',  ( 0.0000000000000000000, 0.0000000000000000000, 101.8074564848000400 ) ) ;
#3 = APPLICATION_CONTEXT ( 'configuration controlled 3d designs of mechanical parts and assemblies' ) ;
#4 = DIRECTION ( 'NONE',  ( -0.0000000000000000000, -0.0000000000000000000, 1.000000000000000000 ) ) ;
#5 = PERSON_AND_ORGANIZATION ( #53, #113 ) ;
#6 = CIRCLE ( 'NONE', #84, 11.00000000000000000 ) ;
#7 = CARTESIAN_POINT ( 'NONE',  ( 0.0000000000000000000, 0.0000000000000000000, 101.8074564848000400 ) ) ;
#8 = EDGE_CURVE ( 'NONE', #290, #117, #31, .T. ) ;
#9 = PERSON_AND_ORGANIZATION_ROLE ( 'classification_officer' ) ;
#10 = ORIENTED_EDGE ( 'NONE', *, *, #283, .T. ) ;
#11 = PLANE ( 'NONE',  #229 ) ;
#12 = CARTESIAN_POINT ( 'NONE',  ( 11.00000000000000000, 0.0000000000000000000, 101.8074564848000400 ) ) ;
#13 = CALENDAR_DATE ( 2019, 9, 4 ) ;
#14 = DIRECTION ( 'NONE',  ( -0.0000000000000000000, -0.0000000000000000000, 1.000000000000000000 ) ) ;
#15 = CARTESIAN_POINT ( 'NONE',  ( -13.03657776635556700, 0.0000000000000000000, 7.842050807568876200 ) ) ;
#16 = APPROVAL ( #217, 'UNSPECIFIED' ) ;
#17 = CIRCLE ( 'NONE', #282, 9.012603057622234500 ) ;
#18 = ORIENTED_EDGE ( 'NONE', *, *, #343, .F. ) ;
#19 = AXIS2_PLACEMENT_3D ( 'NONE', #370, #170, #312 ) ;
#20 = TOROIDAL_SURFACE ( 'NONE', #382, 9.012603057622234500, 0.4000000000000009700 ) ;
#21 = VERTEX_POINT ( 'NONE', #99 ) ;
#22 = DIRECTION ( 'NONE',  ( 1.000000000000000000, 0.0000000000000000000, 0.0000000000000000000 ) ) ;
#23 = CC_DESIGN_PERSON_AND_ORGANIZATION_ASSIGNMENT ( #30, #38, ( #281 ) ) ;
#24 = ORIENTED_EDGE ( 'NONE', *, *, #286, .F. ) ;
#25 = LOCAL_TIME ( 15, 19, 52.00000000000000000, #237 ) ;
#26 = CIRCLE ( 'NONE', #292, 13.00000000000000000 ) ;
#27 = EDGE_CURVE ( 'NONE', #117, #317, #83, .T. ) ;
#28 = CC_DESIGN_DATE_AND_TIME_ASSIGNMENT ( #159, #36, ( #127 ) ) ;
#29 = APPROVAL_DATE_TIME ( #195, #376 ) ;
#30 = PERSON_AND_ORGANIZATION ( #53, #113 ) ;
#31 = CIRCLE ( 'NONE', #331, 11.00000000000000000 ) ;
#32 = AXIS2_PLACEMENT_3D ( 'NONE', #227, #197, #134 ) ;
#33 = ADVANCED_FACE ( 'NONE', ( #326 ), #166, .F. ) ;
#34 = DIRECTION ( 'NONE',  ( 1.000000000000000000, 0.0000000000000000000, 0.0000000000000000000 ) ) ;
#35 = PRODUCT_DEFINITION ( 'UNKNOWN', '', #109, #141 ) ;
#36 = DATE_TIME_ROLE ( 'classification_date' ) ;
#37 = VECTOR ( 'NONE', #194, 1000.000000000000000 ) ;
#38 = PERSON_AND_ORGANIZATION_ROLE ( 'design_owner' ) ;
#39 = CARTESIAN_POINT ( 'NONE',  ( 0.0000000000000000000, 0.0000000000000000000, 0.0000000000000000000 ) ) ;
#40 = DIRECTION ( 'NONE',  ( -0.0000000000000000000, -0.0000000000000000000, 1.000000000000000000 ) ) ;
#41 = CARTESIAN_POINT ( 'NONE',  ( 0.0000000000000000000, 0.0000000000000000000, 7.842050807568876200 ) ) ;
#42 = ORIENTED_EDGE ( 'NONE', *, *, #286, .T. ) ;
#43 = CARTESIAN_POINT ( 'NONE',  ( 10.26217568973925200, 0.0000000000000000000, 0.0000000000000000000 ) ) ;
#44 = CALENDAR_DATE ( 2019, 9, 4 ) ;
#45 = DIRECTION ( 'NONE',  ( 1.000000000000000000, 0.0000000000000000000, 0.0000000000000000000 ) ) ;
#46 = FACE_OUTER_BOUND ( 'NONE', #231, .T. ) ;
#47 = DIRECTION ( 'NONE',  ( -0.0000000000000000000, -0.0000000000000000000, 1.000000000000000000 ) ) ;
#48 = VECTOR ( 'NONE', #100, 1000.000000000000200 ) ;
#49 = DIRECTION ( 'NONE',  ( -0.0000000000000000000, -0.0000000000000000000, 1.000000000000000000 ) ) ;
#50 = FACE_OUTER_BOUND ( 'NONE', #173, .T. ) ;
#51 = CARTESIAN_POINT ( 'NONE',  ( -10.26217568973925200, 1.424397449982127500E-015, 0.0000000000000000000 ) ) ;
#52 = VERTEX_POINT ( 'NONE', #73 ) ;
#53 = PERSON ( 'UNSPECIFIED', 'UNSPECIFIED', 'UNSPECIFIED', ('UNSPECIFIED'), ('UNSPECIFIED'), ('UNSPECIFIED') ) ;
#54 = CARTESIAN_POINT ( 'NONE',  ( 0.0000000000000000000, 0.0000000000000000000, 33.65566924038402900 ) ) ;
#55 = ORIENTED_EDGE ( 'NONE', *, *, #355, .F. ) ;
#56 = EDGE_LOOP ( 'NONE', ( #162, #351 ) ) ;
#57 = VERTEX_POINT ( 'NONE', #354 ) ;
#58 = DATE_AND_TIME ( #13, #222 ) ;
#59 = ORIENTED_EDGE ( 'NONE', *, *, #340, .F. ) ;
#60 = CC_DESIGN_APPROVAL ( #16, ( #35 ) ) ;
#61 = DIRECTION ( 'NONE',  ( -0.0000000000000000000, -0.0000000000000000000, 1.000000000000000000 ) ) ;
#62 = ORIENTED_EDGE ( 'NONE', *, *, #355, .T. ) ;
#63 = CALENDAR_DATE ( 2019, 9, 4 ) ;
#64 = PERSON_AND_ORGANIZATION_ROLE ( 'design_supplier' ) ;
#65 = ORIENTED_EDGE ( 'NONE', *, *, #306, .F. ) ;
#66 = MECHANICAL_CONTEXT ( 'NONE', #299, 'mechanical' ) ;
#67 = DIRECTION ( 'NONE',  ( -0.0000000000000000000, -0.0000000000000000000, 1.000000000000000000 ) ) ;
#68 = DIRECTION ( 'NONE',  ( 0.0000000000000000000, 0.0000000000000000000, 1.000000000000000000 ) ) ;
#69 = COORDINATED_UNIVERSAL_TIME_OFFSET ( 5, 30, .AHEAD. ) ;
#70 = DIRECTION ( 'NONE',  ( 1.000000000000000000, 0.0000000000000000000, 0.0000000000000000000 ) ) ;
#71 = DIRECTION ( 'NONE',  ( -1.000000000000000000, 0.0000000000000000000, -0.0000000000000000000 ) ) ;
#72 = CARTESIAN_POINT ( 'NONE',  ( 0.0000000000000000000, 0.0000000000000000000, 0.0000000000000000000 ) ) ;
#73 = CARTESIAN_POINT ( 'NONE',  ( 13.03657776635556700, 1.596520323340289600E-015, 7.842050807568876200 ) ) ;
#74 = CARTESIAN_POINT ( 'NONE',  ( 0.0000000000000000000, 0.0000000000000000000, 0.0000000000000000000 ) ) ;
#75 = ORIENTED_EDGE ( 'NONE', *, *, #359, .F. ) ;
#76 = DIRECTION ( 'NONE',  ( 1.000000000000000000, 0.0000000000000000000, 0.0000000000000000000 ) ) ;
#77 = VECTOR ( 'NONE', #309, 1000.000000000000000 ) ;
#78 = CARTESIAN_POINT ( 'NONE',  ( 10.26217568973925200, 0.0000000000000000000, 0.0000000000000000000 ) ) ;
#79 = CYLINDRICAL_SURFACE ( 'NONE', #298, 11.00000000000000000 ) ;
#80 = ADVANCED_FACE ( 'NONE', ( #46 ), #319, .T. ) ;
#81 = CARTESIAN_POINT ( 'NONE',  ( -13.03657776635556700, 0.0000000000000000000, 7.842050807568876200 ) ) ;
#82 = PERSON_AND_ORGANIZATION ( #53, #113 ) ;
#83 = LINE ( 'NONE', #12, #37 ) ;
#84 = AXIS2_PLACEMENT_3D ( 'NONE', #250, #14, #198 ) ;
#85 = VECTOR ( 'NONE', #368, 1000.000000000000200 ) ;
#86 = CONICAL_SURFACE ( 'NONE', #378, 13.03657776635556700, 0.1396263401595396500 ) ;
#87 = CARTESIAN_POINT ( 'NONE',  ( -11.00000000000000000, 1.347111479062088400E-015, 7.842050807568890400 ) ) ;
#88 = CARTESIAN_POINT ( 'NONE',  ( 9.408710285118862900, 1.374377508408924700E-015, 33.65566924038402900 ) ) ;
#89 = LINE ( 'NONE', #223, #77 ) ;
#90 = AXIS2_PLACEMENT_3D ( 'NONE', #125, #47, #34 ) ;
#91 = APPROVAL_ROLE ( '' ) ;
#92 = CIRCLE ( 'NONE', #287, 13.03657776635556700 ) ;
#93 = DIRECTION ( 'NONE',  ( 1.000000000000000000, 0.0000000000000000000, 0.0000000000000000000 ) ) ;
#94 = CARTESIAN_POINT ( 'NONE',  ( 0.0000000000000000000, 0.0000000000000000000, 33.60000000000000100 ) ) ;
#95 = FACE_OUTER_BOUND ( 'NONE', #139, .T. ) ;
#96 = AXIS2_PLACEMENT_3D ( 'NONE', #176, #377, #213 ) ;
#97 = ADVANCED_FACE ( 'NONE', ( #98 ), #349, .T. ) ;
#98 = FACE_OUTER_BOUND ( 'NONE', #106, .T. ) ;
#99 = CARTESIAN_POINT ( 'NONE',  ( -9.408710285118862900, 0.0000000000000000000, 33.65566924038402900 ) ) ;
#100 = DIRECTION ( 'NONE',  ( -0.4999999999999957800, 6.123233995736714300E-017, 0.8660254037844410400 ) ) ;
#101 = SHAPE_DEFINITION_REPRESENTATION ( #112, #364 ) ;
#102 = APPROVAL ( #241, 'UNSPECIFIED' ) ;
#103 = VECTOR ( 'NONE', #199, 1000.000000000000000 ) ;
#104 = MANIFOLD_SOLID_BREP ( 'Revolve1', #297 ) ;
#105 = CC_DESIGN_PERSON_AND_ORGANIZATION_ASSIGNMENT ( #171, #64, ( #109 ) ) ;
#106 = EDGE_LOOP ( 'NONE', ( #42, #205, #269, #59 ) ) ;
#107 = CARTESIAN_POINT ( 'NONE',  ( 11.00000000000000000, 0.0000000000000000000, 7.842050807568890400 ) ) ;
#108 = CIRCLE ( 'NONE', #177, 9.408710285118862900 ) ;
#109 = PRODUCT_DEFINITION_FORMATION_WITH_SPECIFIED_SOURCE ( 'ANY', '', #281, .NOT_KNOWN. ) ;
#110 = ADVANCED_FACE ( 'NONE', ( #367 ), #20, .T. ) ;
#111 = VERTEX_POINT ( 'NONE', #51 ) ;
#112 = PRODUCT_DEFINITION_SHAPE ( 'NONE', 'NONE',  #35 ) ;
#113 = ORGANIZATION ( 'UNSPECIFIED', 'UNSPECIFIED', '' ) ;
#114 = CIRCLE ( 'NONE', #143, 0.4000000000000010200 ) ;
#115 = EDGE_LOOP ( 'NONE', ( #24, #383, #371, #211 ) ) ;
#116 = FACE_OUTER_BOUND ( 'NONE', #115, .T. ) ;
#117 = VERTEX_POINT ( 'NONE', #330 ) ;
#118 = EDGE_CURVE ( 'NONE', #314, #52, #92, .T. ) ;
#119 = CARTESIAN_POINT ( 'NONE',  ( 13.03657776635556700, 1.596520323340289600E-015, 7.842050807568876200 ) ) ;
#120 = PERSON_AND_ORGANIZATION ( #53, #113 ) ;
#121 = CONICAL_SURFACE ( 'NONE', #153, 10.26217568973925200, 0.5235987755982940400 ) ;
#122 = PERSON_AND_ORGANIZATION_ROLE ( 'creator' ) ;
#123 = DIRECTION ( 'NONE',  ( 1.000000000000000000, 0.0000000000000000000, 0.0000000000000000000 ) ) ;
#124 = ORIENTED_EDGE ( 'NONE', *, *, #266, .T. ) ;
#125 = CARTESIAN_POINT ( 'NONE',  ( 0.0000000000000000000, 0.0000000000000000000, 33.65566924038402900 ) ) ;
#126 = DIRECTION ( 'NONE',  ( -0.0000000000000000000, -0.0000000000000000000, 1.000000000000000000 ) ) ;
#127 = SECURITY_CLASSIFICATION ( '', '', #267 ) ;
#128 = DIRECTION ( 'NONE',  ( -0.0000000000000000000, -0.0000000000000000000, 1.000000000000000000 ) ) ;
#129 = PERSON_AND_ORGANIZATION ( #53, #113 ) ;
#130 = CARTESIAN_POINT ( 'NONE',  ( 9.012603057622234500, 0.0000000000000000000, 34.00000000000000000 ) ) ;
#131 = CALENDAR_DATE ( 2019, 9, 4 ) ;
#132 = LINE ( 'NONE', #78, #85 ) ;
#133 = AXIS2_PLACEMENT_3D ( 'NONE', #169, #335, #135 ) ;
#134 = DIRECTION ( 'NONE',  ( -1.000000000000000000, 0.0000000000000000000, -0.0000000000000000000 ) ) ;
#135 = DIRECTION ( 'NONE',  ( 1.000000000000000000, 0.0000000000000000000, 0.0000000000000000000 ) ) ;
#136 = DIRECTION ( 'NONE',  ( -1.000000000000000000, 0.0000000000000000000, 0.0000000000000000000 ) ) ;
#137 = PLANE ( 'NONE',  #341 ) ;
#138 = EDGE_LOOP ( 'NONE', ( #157, #10 ) ) ;
#139 = EDGE_LOOP ( 'NONE', ( #192, #375 ) ) ;
#140 = PERSON_AND_ORGANIZATION ( #53, #113 ) ;
#141 = DESIGN_CONTEXT ( 'detailed design', #3, 'design' ) ;
#142 = CARTESIAN_POINT ( 'NONE',  ( -13.00000000000000000, 1.592040838891559100E-015, 4.742050807568884500 ) ) ;
#143 = AXIS2_PLACEMENT_3D ( 'NONE', #337, #380, #344 ) ;
#144 = COORDINATED_UNIVERSAL_TIME_OFFSET ( 5, 30, .AHEAD. ) ;
#145 = FACE_OUTER_BOUND ( 'NONE', #202, .T. ) ;
#146 = ADVANCED_FACE ( 'NONE', ( #50 ), #79, .T. ) ;
#147 = VERTEX_POINT ( 'NONE', #130 ) ;
#148 = ORIENTED_EDGE ( 'NONE', *, *, #27, .T. ) ;
#149 = APPROVAL_PERSON_ORGANIZATION ( #82, #16, #190 ) ;
#150 = AXIS2_PLACEMENT_3D ( 'NONE', #228, #68, #93 ) ;
#151 = COORDINATED_UNIVERSAL_TIME_OFFSET ( 5, 30, .AHEAD. ) ;
#152 = DIRECTION ( 'NONE',  ( 1.000000000000000000, 0.0000000000000000000, 0.0000000000000000000 ) ) ;
#153 = AXIS2_PLACEMENT_3D ( 'NONE', #74, #49, #215 ) ;
#154 = DATE_AND_TIME ( #63, #179 ) ;
#155 = ADVANCED_FACE ( 'NONE', ( #145 ), #273, .T. ) ;
#156 = CARTESIAN_POINT ( 'NONE',  ( 0.0000000000000000000, 13.03657776635556700, 7.842050807568883300 ) ) ;
#157 = ORIENTED_EDGE ( 'NONE', *, *, #345, .T. ) ;
#158 = PERSON_AND_ORGANIZATION_ROLE ( 'creator' ) ;
#159 = DATE_AND_TIME ( #44, #209 ) ;
#160 = FACE_BOUND ( 'NONE', #257, .T. ) ;
#161 = CARTESIAN_POINT ( 'NONE',  ( 0.0000000000000000000, 0.0000000000000000000, 33.60000000000000100 ) ) ;
#162 = ORIENTED_EDGE ( 'NONE', *, *, #118, .F. ) ;
#163 = CARTESIAN_POINT ( 'NONE',  ( -9.012603057622234500, 1.127980121063915600E-015, 34.00000000000000000 ) ) ;
#164 = DIRECTION ( 'NONE',  ( -0.0000000000000000000, -0.0000000000000000000, 1.000000000000000000 ) ) ;
#165 = AXIS2_PLACEMENT_3D ( 'NONE', #224, #305, #255 ) ;
#166 = PLANE ( 'NONE',  #293 ) ;
#167 = EDGE_CURVE ( 'NONE', #21, #314, #334, .T. ) ;
#168 = ORIENTED_EDGE ( 'NONE', *, *, #189, .F. ) ;
#169 = CARTESIAN_POINT ( 'NONE',  ( 0.0000000000000000000, 0.0000000000000000000, 4.742050807568884500 ) ) ;
#170 = DIRECTION ( 'NONE',  ( -0.0000000000000000000, -0.0000000000000000000, 1.000000000000000000 ) ) ;
#171 = PERSON_AND_ORGANIZATION ( #53, #113 ) ;
#172 = CIRCLE ( 'NONE', #19, 9.012603057622234500 ) ;
#173 = EDGE_LOOP ( 'NONE', ( #62, #178, #251, #356 ) ) ;
#174 = CIRCLE ( 'NONE', #182, 10.26217568973925200 ) ;
#175 = ORIENTED_EDGE ( 'NONE', *, *, #340, .T. ) ;
#176 = CARTESIAN_POINT ( 'NONE',  ( 0.0000000000000000000, 0.0000000000000000000, 7.842050807568890400 ) ) ;
#177 = AXIS2_PLACEMENT_3D ( 'NONE', #54, #4, #259 ) ;
#178 = ORIENTED_EDGE ( 'NONE', *, *, #374, .T. ) ;
#179 = LOCAL_TIME ( 15, 19, 52.00000000000000000, #151 ) ;
#180 = CARTESIAN_POINT ( 'NONE',  ( 0.0000000000000000000, 0.0000000000000000000, 0.0000000000000000000 ) ) ;
#181 = ORIENTED_EDGE ( 'NONE', *, *, #167, .T. ) ;
#182 = AXIS2_PLACEMENT_3D ( 'NONE', #72, #164, #285 ) ;
#183 = LOCAL_TIME ( 15, 19, 52.00000000000000000, #69 ) ;
#184 = CC_DESIGN_APPROVAL ( #102, ( #127 ) ) ;
#185 = FACE_OUTER_BOUND ( 'NONE', #339, .T. ) ;
#186 = ORIENTED_EDGE ( 'NONE', *, *, #283, .F. ) ;
#187 = ADVANCED_FACE ( 'NONE', ( #226 ), #342, .T. ) ;
#188 = EDGE_LOOP ( 'NONE', ( #270, #236, #175, #307 ) ) ;
#189 = EDGE_CURVE ( 'NONE', #249, #52, #206, .T. ) ;
#190 = APPROVAL_ROLE ( '' ) ;
#191 =( LENGTH_UNIT ( ) NAMED_UNIT ( * ) SI_UNIT ( .MILLI., .METRE. ) );
#192 = ORIENTED_EDGE ( 'NONE', *, *, #385, .T. ) ;
#193 = ORIENTED_EDGE ( 'NONE', *, *, #385, .F. ) ;
#194 = DIRECTION ( 'NONE',  ( -0.0000000000000000000, -0.0000000000000000000, 1.000000000000000000 ) ) ;
#195 = DATE_AND_TIME ( #254, #25 ) ;
#196 = APPROVAL_DATE_TIME ( #301, #16 ) ;
#197 = DIRECTION ( 'NONE',  ( 0.0000000000000000000, 0.0000000000000000000, -1.000000000000000000 ) ) ;
#198 = DIRECTION ( 'NONE',  ( 1.000000000000000000, 0.0000000000000000000, 0.0000000000000000000 ) ) ;
#199 = DIRECTION ( 'NONE',  ( 0.1391731009600587800, 1.704378926181474000E-017, -0.9902680687415712500 ) ) ;
#200 = CARTESIAN_POINT ( 'NONE',  ( 0.0000000000000000000, 13.00000000000000000, 4.742050807568884500 ) ) ;
#201 = CC_DESIGN_PERSON_AND_ORGANIZATION_ASSIGNMENT ( #336, #9, ( #127 ) ) ;
#202 = EDGE_LOOP ( 'NONE', ( #168, #18, #181, #373 ) ) ;
#203 = EDGE_CURVE ( 'NONE', #280, #57, #26, .T. ) ;
#204 = ORIENTED_EDGE ( 'NONE', *, *, #203, .F. ) ;
#205 = ORIENTED_EDGE ( 'NONE', *, *, #275, .T. ) ;
#206 = LINE ( 'NONE', #119, #103 ) ;
#207 = ORIENTED_EDGE ( 'NONE', *, *, #374, .F. ) ;
#208 = ORIENTED_EDGE ( 'NONE', *, *, #363, .F. ) ;
#209 = LOCAL_TIME ( 15, 19, 52.00000000000000000, #262 ) ;
#210 = CIRCLE ( 'NONE', #324, 10.26217568973925200 ) ;
#211 = ORIENTED_EDGE ( 'NONE', *, *, #167, .F. ) ;
#212 = EDGE_CURVE ( 'NONE', #111, #313, #210, .T. ) ;
#213 = DIRECTION ( 'NONE',  ( 1.000000000000000000, 0.0000000000000000000, 0.0000000000000000000 ) ) ;
#214 = ORIENTED_EDGE ( 'NONE', *, *, #8, .F. ) ;
#215 = DIRECTION ( 'NONE',  ( 1.000000000000000000, 0.0000000000000000000, 0.0000000000000000000 ) ) ;
#216 = DIRECTION ( 'NONE',  ( 1.000000000000000000, 0.0000000000000000000, 0.0000000000000000000 ) ) ;
#217 = APPROVAL_STATUS ( 'not_yet_approved' ) ;
#218 = EDGE_LOOP ( 'NONE', ( #207, #235, #148, #186 ) ) ;
#219 = ORIENTED_EDGE ( 'NONE', *, *, #359, .T. ) ;
#220 = CARTESIAN_POINT ( 'NONE',  ( 0.0000000000000000000, 0.0000000000000000000, 4.742050807568884500 ) ) ;
#221 = DIRECTION ( 'NONE',  ( 1.000000000000000000, 0.0000000000000000000, 0.0000000000000000000 ) ) ;
#222 = LOCAL_TIME ( 15, 19, 52.00000000000000000, #144 ) ;
#223 = CARTESIAN_POINT ( 'NONE',  ( -11.00000000000000000, 1.347111479062088400E-015, 101.8074564848000400 ) ) ;
#224 = CARTESIAN_POINT ( 'NONE',  ( 9.012603057622234500, 0.0000000000000000000, 33.60000000000000100 ) ) ;
#225 =( NAMED_UNIT ( * ) PLANE_ANGLE_UNIT ( ) SI_UNIT ( $, .RADIAN. ) );
#226 = FACE_OUTER_BOUND ( 'NONE', #218, .T. ) ;
#227 = CARTESIAN_POINT ( 'NONE',  ( 0.0000000000000000000, 9.012603057622234500, 34.00000000000000000 ) ) ;
#228 = CARTESIAN_POINT ( 'NONE',  ( 0.0000000000000000000, 0.0000000000000000000, 0.0000000000000000000 ) ) ;
#229 = AXIS2_PLACEMENT_3D ( 'NONE', #200, #247, #71 ) ;
#230 = CIRCLE ( 'NONE', #260, 13.00000000000000000 ) ;
#231 = EDGE_LOOP ( 'NONE', ( #208, #347, #219, #204 ) ) ;
#232 = AXIS2_PLACEMENT_3D ( 'NONE', #302, #128, #245 ) ;
#233 = ADVANCED_FACE ( 'NONE', ( #360, #386 ), #137, .F. ) ;
#234 = VECTOR ( 'NONE', #333, 1000.000000000000000 ) ;
#235 = ORIENTED_EDGE ( 'NONE', *, *, #8, .T. ) ;
#236 = ORIENTED_EDGE ( 'NONE', *, *, #343, .T. ) ;
#237 = COORDINATED_UNIVERSAL_TIME_OFFSET ( 5, 30, .AHEAD. ) ;
#238 = AXIS2_PLACEMENT_3D ( 'NONE', #94, #276, #123 ) ;
#239 = DIRECTION ( 'NONE',  ( -0.0000000000000000000, -0.0000000000000000000, 1.000000000000000000 ) ) ;
#240 = LINE ( 'NONE', #265, #48 ) ;
#241 = APPROVAL_STATUS ( 'not_yet_approved' ) ;
#242 = DIRECTION ( 'NONE',  ( 1.000000000000000000, 0.0000000000000000000, 0.0000000000000000000 ) ) ;
#243 = APPLICATION_PROTOCOL_DEFINITION ( 'international standard', 'config_control_design', 1994, #299 ) ;
#244 = CARTESIAN_POINT ( 'NONE',  ( 0.0000000000000000000, 0.0000000000000000000, 4.742050807568884500 ) ) ;
#245 = DIRECTION ( 'NONE',  ( 1.000000000000000000, 0.0000000000000000000, 0.0000000000000000000 ) ) ;
#246 = DIRECTION ( 'NONE',  ( -0.0000000000000000000, -0.0000000000000000000, 1.000000000000000000 ) ) ;
#247 = DIRECTION ( 'NONE',  ( 0.0000000000000000000, 0.0000000000000000000, -1.000000000000000000 ) ) ;
#248 = CARTESIAN_POINT ( 'NONE',  ( 0.0000000000000000000, 0.0000000000000000000, 34.00000000000000000 ) ) ;
#249 = VERTEX_POINT ( 'NONE', #88 ) ;
#250 = CARTESIAN_POINT ( 'NONE',  ( 0.0000000000000000000, 0.0000000000000000000, 7.842050807568890400 ) ) ;
#251 = ORIENTED_EDGE ( 'NONE', *, *, #345, .F. ) ;
#252 = ADVANCED_FACE ( 'NONE', ( #116 ), #86, .T. ) ;
#253 = CARTESIAN_POINT ( 'NONE',  ( 0.0000000000000000000, 0.0000000000000000000, 0.0000000000000000000 ) ) ;
#254 = CALENDAR_DATE ( 2019, 9, 4 ) ;
#255 = DIRECTION ( 'NONE',  ( 0.0000000000000000000, 0.0000000000000000000, -1.000000000000000000 ) ) ;
#256 = FACE_OUTER_BOUND ( 'NONE', #332, .T. ) ;
#257 = EDGE_LOOP ( 'NONE', ( #55, #214 ) ) ;
#258 =( GEOMETRIC_REPRESENTATION_CONTEXT ( 3 ) GLOBAL_UNCERTAINTY_ASSIGNED_CONTEXT ( ( #291 ) ) GLOBAL_UNIT_ASSIGNED_CONTEXT ( ( #191, #225, #329 ) ) REPRESENTATION_CONTEXT ( 'NONE', 'WORKASPACE' ) );
#259 = DIRECTION ( 'NONE',  ( 1.000000000000000000, 0.0000000000000000000, 0.0000000000000000000 ) ) ;
#260 = AXIS2_PLACEMENT_3D ( 'NONE', #220, #40, #357 ) ;
#261 = CIRCLE ( 'NONE', #232, 13.03657776635556700 ) ;
#262 = COORDINATED_UNIVERSAL_TIME_OFFSET ( 5, 30, .AHEAD. ) ;
#263 = EDGE_LOOP ( 'NONE', ( #65, #321 ) ) ;
#264 = DIRECTION ( 'NONE',  ( 0.0000000000000000000, -0.0000000000000000000, 1.000000000000000000 ) ) ;
#265 = CARTESIAN_POINT ( 'NONE',  ( -10.26217568973925200, 1.256754061072695800E-015, 0.0000000000000000000 ) ) ;
#266 = EDGE_CURVE ( 'NONE', #147, #381, #17, .T. ) ;
#267 = SECURITY_CLASSIFICATION_LEVEL ( 'unclassified' ) ;
#268 = DIRECTION ( 'NONE',  ( -0.0000000000000000000, -0.0000000000000000000, 1.000000000000000000 ) ) ;
#269 = ORIENTED_EDGE ( 'NONE', *, *, #266, .F. ) ;
#270 = ORIENTED_EDGE ( 'NONE', *, *, #275, .F. ) ;
#271 = CARTESIAN_POINT ( 'NONE',  ( 0.0000000000000000000, 0.0000000000000000000, 7.842050807568876200 ) ) ;
#272 = DIRECTION ( 'NONE',  ( -0.0000000000000000000, -0.0000000000000000000, 1.000000000000000000 ) ) ;
#273 = CONICAL_SURFACE ( 'NONE', #303, 13.03657776635556700, 0.1396263401595396500 ) ;
#274 = VERTEX_POINT ( 'NONE', #87 ) ;
#275 = EDGE_CURVE ( 'NONE', #21, #381, #114, .T. ) ;
#276 = DIRECTION ( 'NONE',  ( -0.0000000000000000000, -0.0000000000000000000, 1.000000000000000000 ) ) ;
#277 = ADVANCED_FACE ( 'NONE', ( #185 ), #387, .F. ) ;
#278 = APPROVAL_PERSON_ORGANIZATION ( #120, #102, #1 ) ;
#279 = CIRCLE ( 'NONE', #165, 0.3999999999999975800 ) ;
#280 = VERTEX_POINT ( 'NONE', #142 ) ;
#281 = PRODUCT ( 'TAP COLLET ER 25G  5.0  X 4.0', 'TAP COLLET ER 25G  5.0  X 4.0', '', ( #66 ) ) ;
#282 = AXIS2_PLACEMENT_3D ( 'NONE', #248, #61, #22 ) ;
#283 = EDGE_CURVE ( 'NONE', #274, #317, #284, .T. ) ;
#284 = CIRCLE ( 'NONE', #96, 11.00000000000000000 ) ;
#285 = DIRECTION ( 'NONE',  ( 1.000000000000000000, 0.0000000000000000000, 0.0000000000000000000 ) ) ;
#286 = EDGE_CURVE ( 'NONE', #249, #21, #338, .T. ) ;
#287 = AXIS2_PLACEMENT_3D ( 'NONE', #41, #246, #70 ) ;
#288 = ORIENTED_EDGE ( 'NONE', *, *, #363, .T. ) ;
#289 = AXIS2_PLACEMENT_3D ( 'NONE', #2, #352, #216 ) ;
#290 = VERTEX_POINT ( 'NONE', #295 ) ;
#291 = UNCERTAINTY_MEASURE_WITH_UNIT (LENGTH_MEASURE( 1.000000000000000100E-005 ), #191, 'distance_accuracy_value', 'NONE');
#292 = AXIS2_PLACEMENT_3D ( 'NONE', #244, #369, #152 ) ;
#293 = AXIS2_PLACEMENT_3D ( 'NONE', #253, #361, #300 ) ;
#294 = CIRCLE ( 'NONE', #133, 11.00000000000000000 ) ;
#295 = CARTESIAN_POINT ( 'NONE',  ( -11.00000000000000000, 1.347111479062088400E-015, 4.742050807568884500 ) ) ;
#296 = APPROVAL_STATUS ( 'not_yet_approved' ) ;
#297 = CLOSED_SHELL ( 'NONE', ( #97, #252, #146, #320, #33, #80, #372, #187, #233, #155, #110, #277 ) ) ;
#298 = AXIS2_PLACEMENT_3D ( 'NONE', #7, #126, #221 ) ;
#299 = APPLICATION_CONTEXT ( 'configuration controlled 3d designs of mechanical parts and assemblies' ) ;
#300 = DIRECTION ( 'NONE',  ( 1.000000000000000000, 0.0000000000000000000, 0.0000000000000000000 ) ) ;
#301 = DATE_AND_TIME ( #131, #183 ) ;
#302 = CARTESIAN_POINT ( 'NONE',  ( 0.0000000000000000000, 0.0000000000000000000, 7.842050807568876200 ) ) ;
#303 = AXIS2_PLACEMENT_3D ( 'NONE', #271, #304, #358 ) ;
#304 = DIRECTION ( 'NONE',  ( 0.0000000000000000000, 0.0000000000000000000, -1.000000000000000000 ) ) ;
#305 = DIRECTION ( 'NONE',  ( 0.0000000000000000000, -1.000000000000000000, 0.0000000000000000000 ) ) ;
#306 = EDGE_CURVE ( 'NONE', #313, #111, #174, .T. ) ;
#307 = ORIENTED_EDGE ( 'NONE', *, *, #365, .F. ) ;
#308 = CARTESIAN_POINT ( 'NONE',  ( 0.0000000000000000000, 0.0000000000000000000, 4.742050807568884500 ) ) ;
#309 = DIRECTION ( 'NONE',  ( -0.0000000000000000000, -0.0000000000000000000, 1.000000000000000000 ) ) ;
#310 = AXIS2_PLACEMENT_3D ( 'NONE', #39, #67, #327 ) ;
#311 = CC_DESIGN_SECURITY_CLASSIFICATION ( #127, ( #109 ) ) ;
#312 = DIRECTION ( 'NONE',  ( 1.000000000000000000, 0.0000000000000000000, 0.0000000000000000000 ) ) ;
#313 = VERTEX_POINT ( 'NONE', #43 ) ;
#314 = VERTEX_POINT ( 'NONE', #81 ) ;
#315 = PRODUCT_RELATED_PRODUCT_CATEGORY ( 'detail', '', ( #281 ) ) ;
#316 = APPROVAL_DATE_TIME ( #154, #102 ) ;
#317 = VERTEX_POINT ( 'NONE', #107 ) ;
#318 = APPROVAL_PERSON_ORGANIZATION ( #140, #376, #91 ) ;
#319 = CONICAL_SURFACE ( 'NONE', #310, 10.26217568973925200, 0.5235987755982940400 ) ;
#320 = ADVANCED_FACE ( 'NONE', ( #256 ), #121, .T. ) ;
#321 = ORIENTED_EDGE ( 'NONE', *, *, #212, .F. ) ;
#322 = DIRECTION ( 'NONE',  ( 1.000000000000000000, 0.0000000000000000000, 0.0000000000000000000 ) ) ;
#323 = CARTESIAN_POINT ( 'NONE',  ( 0.0000000000000000000, 0.0000000000000000000, 7.842050807568876200 ) ) ;
#324 = AXIS2_PLACEMENT_3D ( 'NONE', #180, #239, #76 ) ;
#325 = DATE_TIME_ROLE ( 'creation_date' ) ;
#326 = FACE_OUTER_BOUND ( 'NONE', #263, .T. ) ;
#327 = DIRECTION ( 'NONE',  ( 1.000000000000000000, 0.0000000000000000000, 0.0000000000000000000 ) ) ;
#328 = CC_DESIGN_APPROVAL ( #376, ( #109 ) ) ;
#329 =( NAMED_UNIT ( * ) SI_UNIT ( $, .STERADIAN. ) SOLID_ANGLE_UNIT ( ) );
#330 = CARTESIAN_POINT ( 'NONE',  ( 11.00000000000000000, 0.0000000000000000000, 4.742050807568884500 ) ) ;
#331 = AXIS2_PLACEMENT_3D ( 'NONE', #308, #272, #45 ) ;
#332 = EDGE_LOOP ( 'NONE', ( #362, #288, #193, #75 ) ) ;
#333 = DIRECTION ( 'NONE',  ( -0.1391731009600587800, 0.0000000000000000000, -0.9902680687415712500 ) ) ;
#334 = LINE ( 'NONE', #15, #234 ) ;
#335 = DIRECTION ( 'NONE',  ( -0.0000000000000000000, -0.0000000000000000000, 1.000000000000000000 ) ) ;
#336 = PERSON_AND_ORGANIZATION ( #53, #113 ) ;
#337 = CARTESIAN_POINT ( 'NONE',  ( -9.012603057622234500, 1.103725548650271700E-015, 33.60000000000000100 ) ) ;
#338 = CIRCLE ( 'NONE', #90, 9.408710285118862900 ) ;
#339 = EDGE_LOOP ( 'NONE', ( #124, #384 ) ) ;
#340 = EDGE_CURVE ( 'NONE', #249, #147, #279, .T. ) ;
#341 = AXIS2_PLACEMENT_3D ( 'NONE', #156, #264, #322 ) ;
#342 = CYLINDRICAL_SURFACE ( 'NONE', #289, 11.00000000000000000 ) ;
#343 = EDGE_CURVE ( 'NONE', #21, #249, #108, .T. ) ;
#344 = DIRECTION ( 'NONE',  ( -1.000000000000000000, 1.224646799147353200E-016, 0.0000000000000000000 ) ) ;
#345 = EDGE_CURVE ( 'NONE', #317, #274, #6, .T. ) ;
#346 = CC_DESIGN_PERSON_AND_ORGANIZATION_ASSIGNMENT ( #129, #122, ( #109 ) ) ;
#347 = ORIENTED_EDGE ( 'NONE', *, *, #212, .T. ) ;
#348 = DIRECTION ( 'NONE',  ( 0.0000000000000000000, 0.0000000000000000000, -1.000000000000000000 ) ) ;
#349 = TOROIDAL_SURFACE ( 'NONE', #238, 9.012603057622234500, 0.4000000000000009700 ) ;
#350 = CC_DESIGN_DATE_AND_TIME_ASSIGNMENT ( #58, #325, ( #35 ) ) ;
#351 = ORIENTED_EDGE ( 'NONE', *, *, #379, .F. ) ;
#352 = DIRECTION ( 'NONE',  ( -0.0000000000000000000, -0.0000000000000000000, 1.000000000000000000 ) ) ;
#353 = APPLICATION_PROTOCOL_DEFINITION ( 'international standard', 'config_control_design', 1994, #3 ) ;
#354 = CARTESIAN_POINT ( 'NONE',  ( 13.00000000000000000, 0.0000000000000000000, 4.742050807568884500 ) ) ;
#355 = EDGE_CURVE ( 'NONE', #117, #290, #294, .T. ) ;
#356 = ORIENTED_EDGE ( 'NONE', *, *, #27, .F. ) ;
#357 = DIRECTION ( 'NONE',  ( 1.000000000000000000, 0.0000000000000000000, 0.0000000000000000000 ) ) ;
#358 = DIRECTION ( 'NONE',  ( -1.000000000000000000, 0.0000000000000000000, 0.0000000000000000000 ) ) ;
#359 = EDGE_CURVE ( 'NONE', #313, #57, #132, .T. ) ;
#360 = FACE_OUTER_BOUND ( 'NONE', #56, .T. ) ;
#361 = DIRECTION ( 'NONE',  ( 0.0000000000000000000, -0.0000000000000000000, 1.000000000000000000 ) ) ;
#362 = ORIENTED_EDGE ( 'NONE', *, *, #306, .T. ) ;
#363 = EDGE_CURVE ( 'NONE', #111, #280, #240, .T. ) ;
#364 = ADVANCED_BREP_SHAPE_REPRESENTATION ( 'TAP COLLET ER 25G  5.0  X 4.0', ( #104, #150 ), #258 ) ;
#365 = EDGE_CURVE ( 'NONE', #381, #147, #172, .T. ) ;
#366 = CC_DESIGN_PERSON_AND_ORGANIZATION_ASSIGNMENT ( #5, #158, ( #35 ) ) ;
#367 = FACE_OUTER_BOUND ( 'NONE', #188, .T. ) ;
#368 = DIRECTION ( 'NONE',  ( 0.4999999999999957800, 0.0000000000000000000, 0.8660254037844410400 ) ) ;
#369 = DIRECTION ( 'NONE',  ( -0.0000000000000000000, -0.0000000000000000000, 1.000000000000000000 ) ) ;
#370 = CARTESIAN_POINT ( 'NONE',  ( 0.0000000000000000000, 0.0000000000000000000, 34.00000000000000000 ) ) ;
#371 = ORIENTED_EDGE ( 'NONE', *, *, #379, .T. ) ;
#372 = ADVANCED_FACE ( 'NONE', ( #160, #95 ), #11, .F. ) ;
#373 = ORIENTED_EDGE ( 'NONE', *, *, #118, .T. ) ;
#374 = EDGE_CURVE ( 'NONE', #290, #274, #89, .T. ) ;
#375 = ORIENTED_EDGE ( 'NONE', *, *, #203, .T. ) ;
#376 = APPROVAL ( #296, 'UNSPECIFIED' ) ;
#377 = DIRECTION ( 'NONE',  ( -0.0000000000000000000, -0.0000000000000000000, 1.000000000000000000 ) ) ;
#378 = AXIS2_PLACEMENT_3D ( 'NONE', #323, #348, #136 ) ;
#379 = EDGE_CURVE ( 'NONE', #52, #314, #261, .T. ) ;
#380 = DIRECTION ( 'NONE',  ( 1.224646799147353200E-016, 1.000000000000000000, 0.0000000000000000000 ) ) ;
#381 = VERTEX_POINT ( 'NONE', #163 ) ;
#382 = AXIS2_PLACEMENT_3D ( 'NONE', #161, #268, #242 ) ;
#383 = ORIENTED_EDGE ( 'NONE', *, *, #189, .T. ) ;
#384 = ORIENTED_EDGE ( 'NONE', *, *, #365, .T. ) ;
#385 = EDGE_CURVE ( 'NONE', #57, #280, #230, .T. ) ;
#386 = FACE_BOUND ( 'NONE', #138, .T. ) ;
#387 = PLANE ( 'NONE',  #32 ) ;
ENDSEC;
END-ISO-10303-21;
