ISO-10303-21;
HEADER;
FILE_DESCRIPTION (( 'STEP AP203' ),
    '1' );
FILE_NAME ('TAP COLLET ER 25G  5.5  X 4.3.STEP',
    '2019-04-09T09:51:43',
    ( '' ),
    ( '' ),
    'SwSTEP 2.0',
    'SolidWorks 2014',
    '' );
FILE_SCHEMA (( 'CONFIG_CONTROL_DESIGN' ));
ENDSEC;

DATA;
#1 = LOCAL_TIME ( 15, 21, 43.00000000000000000, #69 ) ;
#2 = DIRECTION ( 'NONE',  ( 1.000000000000000000, 0.0000000000000000000, 0.0000000000000000000 ) ) ;
#3 = ORIENTED_EDGE ( 'NONE', *, *, #352, .T. ) ;
#4 = DIRECTION ( 'NONE',  ( 1.000000000000000000, 0.0000000000000000000, 0.0000000000000000000 ) ) ;
#5 = CC_DESIGN_DATE_AND_TIME_ASSIGNMENT ( #269, #28, ( #134 ) ) ;
#6 = CARTESIAN_POINT ( 'NONE',  ( 0.0000000000000000000, 0.0000000000000000000, 4.742050807568884500 ) ) ;
#7 = CC_DESIGN_PERSON_AND_ORGANIZATION_ASSIGNMENT ( #354, #211, ( #134 ) ) ;
#8 = CARTESIAN_POINT ( 'NONE',  ( 0.0000000000000000000, 0.0000000000000000000, 0.0000000000000000000 ) ) ;
#9 = CARTESIAN_POINT ( 'NONE',  ( 0.0000000000000000000, 0.0000000000000000000, 7.842050807568890400 ) ) ;
#10 = FACE_OUTER_BOUND ( 'NONE', #359, .T. ) ;
#11 = CARTESIAN_POINT ( 'NONE',  ( 0.0000000000000000000, 0.0000000000000000000, 33.65566924038402900 ) ) ;
#12 = ORIENTED_EDGE ( 'NONE', *, *, #321, .T. ) ;
#13 = FACE_OUTER_BOUND ( 'NONE', #286, .T. ) ;
#14 = CIRCLE ( 'NONE', #157, 9.408710285118862900 ) ;
#15 = ORIENTED_EDGE ( 'NONE', *, *, #180, .T. ) ;
#16 = EDGE_LOOP ( 'NONE', ( #362, #195, #85, #249 ) ) ;
#17 = ORIENTED_EDGE ( 'NONE', *, *, #331, .F. ) ;
#18 = DIRECTION ( 'NONE',  ( -0.0000000000000000000, -0.0000000000000000000, 1.000000000000000000 ) ) ;
#19 = DIRECTION ( 'NONE',  ( -0.0000000000000000000, -0.0000000000000000000, 1.000000000000000000 ) ) ;
#20 = EDGE_CURVE ( 'NONE', #153, #161, #296, .T. ) ;
#21 = COORDINATED_UNIVERSAL_TIME_OFFSET ( 5, 30, .AHEAD. ) ;
#22 = PLANE ( 'NONE',  #162 ) ;
#23 = CC_DESIGN_APPROVAL ( #94, ( #134 ) ) ;
#24 = APPROVAL_PERSON_ORGANIZATION ( #336, #355, #27 ) ;
#25 = ORIENTED_EDGE ( 'NONE', *, *, #321, .F. ) ;
#26 = EDGE_CURVE ( 'NONE', #106, #231, #378, .T. ) ;
#27 = APPROVAL_ROLE ( '' ) ;
#28 = DATE_TIME_ROLE ( 'creation_date' ) ;
#29 = DATE_AND_TIME ( #310, #52 ) ;
#30 = CARTESIAN_POINT ( 'NONE',  ( -9.012603057622234500, 1.103725548650271700E-015, 33.60000000000000100 ) ) ;
#31 = CYLINDRICAL_SURFACE ( 'NONE', #115, 11.00000000000000000 ) ;
#32 = SECURITY_CLASSIFICATION ( '', '', #242 ) ;
#33 = ORIENTED_EDGE ( 'NONE', *, *, #358, .T. ) ;
#34 = APPROVAL_ROLE ( '' ) ;
#35 = FACE_OUTER_BOUND ( 'NONE', #145, .T. ) ;
#36 = DIRECTION ( 'NONE',  ( -0.0000000000000000000, -0.0000000000000000000, 1.000000000000000000 ) ) ;
#37 = LOCAL_TIME ( 15, 21, 43.00000000000000000, #104 ) ;
#38 = DIRECTION ( 'NONE',  ( -0.0000000000000000000, -0.0000000000000000000, 1.000000000000000000 ) ) ;
#39 = EDGE_LOOP ( 'NONE', ( #212, #198, #117, #164 ) ) ;
#40 = DIRECTION ( 'NONE',  ( 0.4999999999999957800, 0.0000000000000000000, 0.8660254037844410400 ) ) ;
#41 = DIRECTION ( 'NONE',  ( 1.000000000000000000, 0.0000000000000000000, 0.0000000000000000000 ) ) ;
#42 = ORIENTED_EDGE ( 'NONE', *, *, #180, .F. ) ;
#43 = APPROVAL_STATUS ( 'not_yet_approved' ) ;
#44 = PERSON_AND_ORGANIZATION ( #168, #77 ) ;
#45 = PRODUCT_RELATED_PRODUCT_CATEGORY ( 'detail', '', ( #197 ) ) ;
#46 = UNCERTAINTY_MEASURE_WITH_UNIT (LENGTH_MEASURE( 1.000000000000000100E-005 ), #91, 'distance_accuracy_value', 'NONE');
#47 = CC_DESIGN_PERSON_AND_ORGANIZATION_ASSIGNMENT ( #236, #68, ( #197 ) ) ;
#48 = TOROIDAL_SURFACE ( 'NONE', #250, 9.012603057622234500, 0.4000000000000009700 ) ;
#49 = CIRCLE ( 'NONE', #268, 13.03657776635556700 ) ;
#50 = CARTESIAN_POINT ( 'NONE',  ( 11.00000000000000000, 0.0000000000000000000, 101.8074564848000400 ) ) ;
#51 = ORIENTED_EDGE ( 'NONE', *, *, #350, .F. ) ;
#52 = LOCAL_TIME ( 15, 21, 43.00000000000000000, #21 ) ;
#53 = DIRECTION ( 'NONE',  ( -0.0000000000000000000, -0.0000000000000000000, 1.000000000000000000 ) ) ;
#54 = ADVANCED_FACE ( 'NONE', ( #125 ), #283, .T. ) ;
#55 = AXIS2_PLACEMENT_3D ( 'NONE', #273, #370, #2 ) ;
#56 = DIRECTION ( 'NONE',  ( -0.1391731009600587800, 0.0000000000000000000, -0.9902680687415712500 ) ) ;
#57 = ORIENTED_EDGE ( 'NONE', *, *, #324, .T. ) ;
#58 = FACE_OUTER_BOUND ( 'NONE', #39, .T. ) ;
#59 = AXIS2_PLACEMENT_3D ( 'NONE', #232, #53, #81 ) ;
#60 = DIRECTION ( 'NONE',  ( -0.0000000000000000000, -0.0000000000000000000, 1.000000000000000000 ) ) ;
#61 = CARTESIAN_POINT ( 'NONE',  ( 0.0000000000000000000, 0.0000000000000000000, 7.842050807568876200 ) ) ;
#62 = ORIENTED_EDGE ( 'NONE', *, *, #318, .T. ) ;
#63 = LINE ( 'NONE', #50, #353 ) ;
#64 = CC_DESIGN_DATE_AND_TIME_ASSIGNMENT ( #29, #374, ( #32 ) ) ;
#65 = CARTESIAN_POINT ( 'NONE',  ( 0.0000000000000000000, 9.012603057622234500, 34.00000000000000000 ) ) ;
#66 = DIRECTION ( 'NONE',  ( -0.0000000000000000000, -0.0000000000000000000, 1.000000000000000000 ) ) ;
#67 = CARTESIAN_POINT ( 'NONE',  ( -13.00000000000000000, 1.592040838891559100E-015, 4.742050807568884500 ) ) ;
#68 = PERSON_AND_ORGANIZATION_ROLE ( 'design_owner' ) ;
#69 = COORDINATED_UNIVERSAL_TIME_OFFSET ( 5, 30, .AHEAD. ) ;
#70 = CYLINDRICAL_SURFACE ( 'NONE', #312, 11.00000000000000000 ) ;
#71 = CARTESIAN_POINT ( 'NONE',  ( 0.0000000000000000000, 0.0000000000000000000, 7.842050807568876200 ) ) ;
#72 = CIRCLE ( 'NONE', #237, 11.00000000000000000 ) ;
#73 = ORIENTED_EDGE ( 'NONE', *, *, #20, .T. ) ;
#74 = CARTESIAN_POINT ( 'NONE',  ( 9.408710285118862900, 1.374377508408924700E-015, 33.65566924038402900 ) ) ;
#75 = CONICAL_SURFACE ( 'NONE', #217, 13.03657776635556700, 0.1396263401595396500 ) ;
#76 = DIRECTION ( 'NONE',  ( 1.000000000000000000, 0.0000000000000000000, 0.0000000000000000000 ) ) ;
#77 = ORGANIZATION ( 'UNSPECIFIED', 'UNSPECIFIED', '' ) ;
#78 = DATE_AND_TIME ( #319, #214 ) ;
#79 = ORIENTED_EDGE ( 'NONE', *, *, #288, .F. ) ;
#80 = APPROVAL ( #43, 'UNSPECIFIED' ) ;
#81 = DIRECTION ( 'NONE',  ( 1.000000000000000000, 0.0000000000000000000, 0.0000000000000000000 ) ) ;
#82 = AXIS2_PLACEMENT_3D ( 'NONE', #205, #323, #174 ) ;
#83 = CIRCLE ( 'NONE', #102, 0.4000000000000010200 ) ;
#84 = COORDINATED_UNIVERSAL_TIME_OFFSET ( 5, 30, .AHEAD. ) ;
#85 = ORIENTED_EDGE ( 'NONE', *, *, #327, .T. ) ;
#86 = CARTESIAN_POINT ( 'NONE',  ( 0.0000000000000000000, 0.0000000000000000000, 0.0000000000000000000 ) ) ;
#87 = FACE_OUTER_BOUND ( 'NONE', #246, .T. ) ;
#88 = ORIENTED_EDGE ( 'NONE', *, *, #322, .T. ) ;
#89 = LOCAL_TIME ( 15, 21, 43.00000000000000000, #111 ) ;
#90 = CARTESIAN_POINT ( 'NONE',  ( 10.26217568973925200, 0.0000000000000000000, 0.0000000000000000000 ) ) ;
#91 =( LENGTH_UNIT ( ) NAMED_UNIT ( * ) SI_UNIT ( .MILLI., .METRE. ) );
#92 = ADVANCED_FACE ( 'NONE', ( #150 ), #70, .T. ) ;
#93 = CIRCLE ( 'NONE', #280, 9.012603057622234500 ) ;
#94 = APPROVAL ( #163, 'UNSPECIFIED' ) ;
#95 = VERTEX_POINT ( 'NONE', #136 ) ;
#96 = CARTESIAN_POINT ( 'NONE',  ( 0.0000000000000000000, 0.0000000000000000000, 7.842050807568890400 ) ) ;
#97 = CONICAL_SURFACE ( 'NONE', #261, 10.26217568973925200, 0.5235987755982940400 ) ;
#98 = DIRECTION ( 'NONE',  ( 1.000000000000000000, 0.0000000000000000000, 0.0000000000000000000 ) ) ;
#99 = EDGE_CURVE ( 'NONE', #326, #316, #140, .T. ) ;
#100 = ORIENTED_EDGE ( 'NONE', *, *, #307, .F. ) ;
#101 = APPROVAL_ROLE ( '' ) ;
#102 = AXIS2_PLACEMENT_3D ( 'NONE', #30, #185, #300 ) ;
#103 = CARTESIAN_POINT ( 'NONE',  ( 11.00000000000000000, 0.0000000000000000000, 4.742050807568884500 ) ) ;
#104 = COORDINATED_UNIVERSAL_TIME_OFFSET ( 5, 30, .AHEAD. ) ;
#105 = CIRCLE ( 'NONE', #184, 11.00000000000000000 ) ;
#106 = VERTEX_POINT ( 'NONE', #223 ) ;
#107 = DIRECTION ( 'NONE',  ( -1.000000000000000000, 0.0000000000000000000, -0.0000000000000000000 ) ) ;
#108 = APPLICATION_CONTEXT ( 'configuration controlled 3d designs of mechanical parts and assemblies' ) ;
#109 = MANIFOLD_SOLID_BREP ( 'Revolve1', #114 ) ;
#110 = CC_DESIGN_SECURITY_CLASSIFICATION ( #32, ( #357 ) ) ;
#111 = COORDINATED_UNIVERSAL_TIME_OFFSET ( 5, 30, .AHEAD. ) ;
#112 = DESIGN_CONTEXT ( 'detailed design', #245, 'design' ) ;
#113 =( NAMED_UNIT ( * ) SI_UNIT ( $, .STERADIAN. ) SOLID_ANGLE_UNIT ( ) );
#114 = CLOSED_SHELL ( 'NONE', ( #215, #377, #387, #275, #253, #233, #257, #92, #313, #126, #54, #328 ) ) ;
#115 = AXIS2_PLACEMENT_3D ( 'NONE', #294, #60, #325 ) ;
#116 = CARTESIAN_POINT ( 'NONE',  ( 0.0000000000000000000, 0.0000000000000000000, 4.742050807568884500 ) ) ;
#117 = ORIENTED_EDGE ( 'NONE', *, *, #352, .F. ) ;
#118 = CARTESIAN_POINT ( 'NONE',  ( 0.0000000000000000000, 0.0000000000000000000, 7.842050807568876200 ) ) ;
#119 = DIRECTION ( 'NONE',  ( 1.000000000000000000, 0.0000000000000000000, 0.0000000000000000000 ) ) ;
#120 = VERTEX_POINT ( 'NONE', #254 ) ;
#121 = CARTESIAN_POINT ( 'NONE',  ( 9.012603057622234500, 0.0000000000000000000, 34.00000000000000000 ) ) ;
#122 = CC_DESIGN_APPROVAL ( #355, ( #357 ) ) ;
#123 = ORIENTED_EDGE ( 'NONE', *, *, #292, .F. ) ;
#124 = PLANE ( 'NONE',  #295 ) ;
#125 = FACE_OUTER_BOUND ( 'NONE', #349, .T. ) ;
#126 = ADVANCED_FACE ( 'NONE', ( #209 ), #75, .T. ) ;
#127 = AXIS2_PLACEMENT_3D ( 'NONE', #172, #19, #384 ) ;
#128 = CIRCLE ( 'NONE', #127, 13.03657776635556700 ) ;
#129 = ORIENTED_EDGE ( 'NONE', *, *, #330, .F. ) ;
#130 = CARTESIAN_POINT ( 'NONE',  ( -13.03657776635556700, 0.0000000000000000000, 7.842050807568876200 ) ) ;
#131 = CARTESIAN_POINT ( 'NONE',  ( -9.012603057622234500, 1.127980121063915600E-015, 34.00000000000000000 ) ) ;
#132 = EDGE_LOOP ( 'NONE', ( #199, #279 ) ) ;
#133 = FACE_OUTER_BOUND ( 'NONE', #226, .T. ) ;
#134 = PRODUCT_DEFINITION ( 'UNKNOWN', '', #357, #112 ) ;
#135 = CIRCLE ( 'NONE', #380, 10.26217568973925200 ) ;
#136 = CARTESIAN_POINT ( 'NONE',  ( 13.03657776635556700, 1.596520323340289600E-015, 7.842050807568876200 ) ) ;
#137 = ORIENTED_EDGE ( 'NONE', *, *, #26, .T. ) ;
#138 = DATE_AND_TIME ( #317, #1 ) ;
#139 = DIRECTION ( 'NONE',  ( 0.0000000000000000000, -1.000000000000000000, 0.0000000000000000000 ) ) ;
#140 = CIRCLE ( 'NONE', #208, 11.00000000000000000 ) ;
#141 = VERTEX_POINT ( 'NONE', #187 ) ;
#142 = AXIS2_PLACEMENT_3D ( 'NONE', #11, #255, #98 ) ;
#143 = SHAPE_DEFINITION_REPRESENTATION ( #158, #343 ) ;
#144 = DIRECTION ( 'NONE',  ( -0.0000000000000000000, -0.0000000000000000000, 1.000000000000000000 ) ) ;
#145 = EDGE_LOOP ( 'NONE', ( #51, #42 ) ) ;
#146 = DIRECTION ( 'NONE',  ( 1.000000000000000000, 0.0000000000000000000, 0.0000000000000000000 ) ) ;
#147 = VECTOR ( 'NONE', #329, 1000.000000000000200 ) ;
#148 = CIRCLE ( 'NONE', #59, 13.00000000000000000 ) ;
#149 = ORIENTED_EDGE ( 'NONE', *, *, #361, .F. ) ;
#150 = FACE_OUTER_BOUND ( 'NONE', #365, .T. ) ;
#151 = CARTESIAN_POINT ( 'NONE',  ( -10.26217568973925200, 1.256754061072695800E-015, 0.0000000000000000000 ) ) ;
#152 = DIRECTION ( 'NONE',  ( -0.0000000000000000000, -0.0000000000000000000, 1.000000000000000000 ) ) ;
#153 = VERTEX_POINT ( 'NONE', #90 ) ;
#154 = ORIENTED_EDGE ( 'NONE', *, *, #344, .T. ) ;
#155 = DIRECTION ( 'NONE',  ( 1.000000000000000000, 0.0000000000000000000, 0.0000000000000000000 ) ) ;
#156 = CIRCLE ( 'NONE', #220, 13.00000000000000000 ) ;
#157 = AXIS2_PLACEMENT_3D ( 'NONE', #201, #18, #230 ) ;
#158 = PRODUCT_DEFINITION_SHAPE ( 'NONE', 'NONE',  #134 ) ;
#159 = DIRECTION ( 'NONE',  ( 1.000000000000000000, 0.0000000000000000000, 0.0000000000000000000 ) ) ;
#160 = CONICAL_SURFACE ( 'NONE', #376, 13.03657776635556700, 0.1396263401595396500 ) ;
#161 = VERTEX_POINT ( 'NONE', #274 ) ;
#162 = AXIS2_PLACEMENT_3D ( 'NONE', #65, #170, #381 ) ;
#163 = APPROVAL_STATUS ( 'not_yet_approved' ) ;
#164 = ORIENTED_EDGE ( 'NONE', *, *, #20, .F. ) ;
#165 = DIRECTION ( 'NONE',  ( 1.000000000000000000, 0.0000000000000000000, 0.0000000000000000000 ) ) ;
#166 = CONICAL_SURFACE ( 'NONE', #299, 10.26217568973925200, 0.5235987755982940400 ) ;
#167 = VERTEX_POINT ( 'NONE', #67 ) ;
#168 = PERSON ( 'UNSPECIFIED', 'UNSPECIFIED', 'UNSPECIFIED', ('UNSPECIFIED'), ('UNSPECIFIED'), ('UNSPECIFIED') ) ;
#169 = DIRECTION ( 'NONE',  ( 1.000000000000000000, 0.0000000000000000000, 0.0000000000000000000 ) ) ;
#170 = DIRECTION ( 'NONE',  ( 0.0000000000000000000, 0.0000000000000000000, -1.000000000000000000 ) ) ;
#171 = DIRECTION ( 'NONE',  ( -0.0000000000000000000, -0.0000000000000000000, 1.000000000000000000 ) ) ;
#172 = CARTESIAN_POINT ( 'NONE',  ( 0.0000000000000000000, 0.0000000000000000000, 7.842050807568876200 ) ) ;
#173 = ORIENTED_EDGE ( 'NONE', *, *, #347, .T. ) ;
#174 = DIRECTION ( 'NONE',  ( 1.000000000000000000, 0.0000000000000000000, 0.0000000000000000000 ) ) ;
#175 = APPROVAL_PERSON_ORGANIZATION ( #204, #94, #34 ) ;
#176 = ORIENTED_EDGE ( 'NONE', *, *, #346, .T. ) ;
#177 = CC_DESIGN_PERSON_AND_ORGANIZATION_ASSIGNMENT ( #196, #193, ( #357 ) ) ;
#178 = VERTEX_POINT ( 'NONE', #121 ) ;
#179 = VECTOR ( 'NONE', #56, 1000.000000000000000 ) ;
#180 = EDGE_CURVE ( 'NONE', #95, #186, #49, .T. ) ;
#181 = CARTESIAN_POINT ( 'NONE',  ( 11.00000000000000000, 0.0000000000000000000, 7.842050807568890400 ) ) ;
#182 = EDGE_LOOP ( 'NONE', ( #17, #123 ) ) ;
#183 = CARTESIAN_POINT ( 'NONE',  ( 9.012603057622234500, 0.0000000000000000000, 33.60000000000000100 ) ) ;
#184 = AXIS2_PLACEMENT_3D ( 'NONE', #116, #171, #146 ) ;
#185 = DIRECTION ( 'NONE',  ( 1.224646799147353200E-016, 1.000000000000000000, 0.0000000000000000000 ) ) ;
#186 = VERTEX_POINT ( 'NONE', #302 ) ;
#187 = CARTESIAN_POINT ( 'NONE',  ( -11.00000000000000000, 1.347111479062088400E-015, 4.742050807568884500 ) ) ;
#188 = DIRECTION ( 'NONE',  ( 1.000000000000000000, 0.0000000000000000000, 0.0000000000000000000 ) ) ;
#189 = FACE_OUTER_BOUND ( 'NONE', #386, .T. ) ;
#190 = APPLICATION_PROTOCOL_DEFINITION ( 'international standard', 'config_control_design', 1994, #108 ) ;
#191 = CALENDAR_DATE ( 2019, 9, 4 ) ;
#192 = ORIENTED_EDGE ( 'NONE', *, *, #318, .F. ) ;
#193 = PERSON_AND_ORGANIZATION_ROLE ( 'design_supplier' ) ;
#194 = PLANE ( 'NONE',  #315 ) ;
#195 = ORIENTED_EDGE ( 'NONE', *, *, #26, .F. ) ;
#196 = PERSON_AND_ORGANIZATION ( #168, #77 ) ;
#197 = PRODUCT ( 'TAP COLLET ER 25G  5.5  X 4.3', 'TAP COLLET ER 25G  5.5  X 4.3', '', ( #277 ) ) ;
#198 = ORIENTED_EDGE ( 'NONE', *, *, #297, .T. ) ;
#199 = ORIENTED_EDGE ( 'NONE', *, *, #307, .T. ) ;
#200 = CARTESIAN_POINT ( 'NONE',  ( -11.00000000000000000, 1.347111479062088400E-015, 101.8074564848000400 ) ) ;
#201 = CARTESIAN_POINT ( 'NONE',  ( 0.0000000000000000000, 0.0000000000000000000, 33.65566924038402900 ) ) ;
#202 = VERTEX_POINT ( 'NONE', #131 ) ;
#203 = DIRECTION ( 'NONE',  ( -1.000000000000000000, 0.0000000000000000000, 0.0000000000000000000 ) ) ;
#204 = PERSON_AND_ORGANIZATION ( #168, #77 ) ;
#205 = CARTESIAN_POINT ( 'NONE',  ( 0.0000000000000000000, 0.0000000000000000000, 0.0000000000000000000 ) ) ;
#206 = EDGE_LOOP ( 'NONE', ( #263, #33, #73, #192 ) ) ;
#207 = LINE ( 'NONE', #265, #258 ) ;
#208 = AXIS2_PLACEMENT_3D ( 'NONE', #9, #36, #188 ) ;
#209 = FACE_OUTER_BOUND ( 'NONE', #16, .T. ) ;
#210 = DIRECTION ( 'NONE',  ( -0.0000000000000000000, -0.0000000000000000000, 1.000000000000000000 ) ) ;
#211 = PERSON_AND_ORGANIZATION_ROLE ( 'creator' ) ;
#212 = ORIENTED_EDGE ( 'NONE', *, *, #361, .T. ) ;
#213 = APPROVAL_STATUS ( 'not_yet_approved' ) ;
#214 = LOCAL_TIME ( 15, 21, 43.00000000000000000, #84 ) ;
#215 = ADVANCED_FACE ( 'NONE', ( #10 ), #48, .T. ) ;
#216 = DIRECTION ( 'NONE',  ( -0.0000000000000000000, -0.0000000000000000000, 1.000000000000000000 ) ) ;
#217 = AXIS2_PLACEMENT_3D ( 'NONE', #71, #305, #303 ) ;
#218 = DIRECTION ( 'NONE',  ( -0.0000000000000000000, -0.0000000000000000000, 1.000000000000000000 ) ) ;
#219 = DIRECTION ( 'NONE',  ( 0.0000000000000000000, -0.0000000000000000000, 1.000000000000000000 ) ) ;
#220 = AXIS2_PLACEMENT_3D ( 'NONE', #6, #369, #155 ) ;
#221 = CIRCLE ( 'NONE', #244, 11.00000000000000000 ) ;
#222 = APPROVAL_DATE_TIME ( #78, #355 ) ;
#223 = CARTESIAN_POINT ( 'NONE',  ( -9.408710285118862900, 0.0000000000000000000, 33.65566924038402900 ) ) ;
#224 = ORIENTED_EDGE ( 'NONE', *, *, #344, .F. ) ;
#225 = PERSON_AND_ORGANIZATION_ROLE ( 'creator' ) ;
#226 = EDGE_LOOP ( 'NONE', ( #57, #332 ) ) ;
#227 = AXIS2_PLACEMENT_3D ( 'NONE', #342, #372, #308 ) ;
#228 = CARTESIAN_POINT ( 'NONE',  ( 0.0000000000000000000, 0.0000000000000000000, 34.00000000000000000 ) ) ;
#229 = LINE ( 'NONE', #151, #147 ) ;
#230 = DIRECTION ( 'NONE',  ( 1.000000000000000000, 0.0000000000000000000, 0.0000000000000000000 ) ) ;
#231 = VERTEX_POINT ( 'NONE', #74 ) ;
#232 = CARTESIAN_POINT ( 'NONE',  ( 0.0000000000000000000, 0.0000000000000000000, 4.742050807568884500 ) ) ;
#233 = ADVANCED_FACE ( 'NONE', ( #309 ), #97, .T. ) ;
#234 = PERSON_AND_ORGANIZATION ( #168, #77 ) ;
#235 = CARTESIAN_POINT ( 'NONE',  ( 0.0000000000000000000, 0.0000000000000000000, 33.60000000000000100 ) ) ;
#236 = PERSON_AND_ORGANIZATION ( #168, #77 ) ;
#237 = AXIS2_PLACEMENT_3D ( 'NONE', #96, #66, #251 ) ;
#238 = DIRECTION ( 'NONE',  ( -0.0000000000000000000, -0.0000000000000000000, 1.000000000000000000 ) ) ;
#239 = FACE_BOUND ( 'NONE', #182, .T. ) ;
#240 = ORIENTED_EDGE ( 'NONE', *, *, #331, .T. ) ;
#241 = DIRECTION ( 'NONE',  ( 1.000000000000000000, 0.0000000000000000000, 0.0000000000000000000 ) ) ;
#242 = SECURITY_CLASSIFICATION_LEVEL ( 'unclassified' ) ;
#243 = CIRCLE ( 'NONE', #82, 10.26217568973925200 ) ;
#244 = AXIS2_PLACEMENT_3D ( 'NONE', #360, #210, #4 ) ;
#245 = APPLICATION_CONTEXT ( 'configuration controlled 3d designs of mechanical parts and assemblies' ) ;
#246 = EDGE_LOOP ( 'NONE', ( #3, #62 ) ) ;
#247 = AXIS2_PLACEMENT_3D ( 'NONE', #228, #144, #76 ) ;
#248 = CARTESIAN_POINT ( 'NONE',  ( 0.0000000000000000000, 13.00000000000000000, 4.742050807568884500 ) ) ;
#249 = ORIENTED_EDGE ( 'NONE', *, *, #350, .T. ) ;
#250 = AXIS2_PLACEMENT_3D ( 'NONE', #235, #218, #338 ) ;
#251 = DIRECTION ( 'NONE',  ( 1.000000000000000000, 0.0000000000000000000, 0.0000000000000000000 ) ) ;
#252 = VERTEX_POINT ( 'NONE', #103 ) ;
#253 = ADVANCED_FACE ( 'NONE', ( #189 ), #194, .F. ) ;
#254 = CARTESIAN_POINT ( 'NONE',  ( -10.26217568973925200, 1.424397449982127500E-015, 0.0000000000000000000 ) ) ;
#255 = DIRECTION ( 'NONE',  ( -0.0000000000000000000, -0.0000000000000000000, 1.000000000000000000 ) ) ;
#256 = AXIS2_PLACEMENT_3D ( 'NONE', #248, #348, #107 ) ;
#257 = ADVANCED_FACE ( 'NONE', ( #239, #87 ), #311, .F. ) ;
#258 = VECTOR ( 'NONE', #287, 1000.000000000000000 ) ;
#259 = CC_DESIGN_APPROVAL ( #80, ( #32 ) ) ;
#260 = ORIENTED_EDGE ( 'NONE', *, *, #358, .F. ) ;
#261 = AXIS2_PLACEMENT_3D ( 'NONE', #340, #152, #159 ) ;
#262 = FACE_OUTER_BOUND ( 'NONE', #337, .T. ) ;
#263 = ORIENTED_EDGE ( 'NONE', *, *, #297, .F. ) ;
#264 = DIRECTION ( 'NONE',  ( -0.0000000000000000000, -0.0000000000000000000, 1.000000000000000000 ) ) ;
#265 = CARTESIAN_POINT ( 'NONE',  ( 13.03657776635556700, 1.596520323340289600E-015, 7.842050807568876200 ) ) ;
#266 = CIRCLE ( 'NONE', #339, 0.3999999999999975800 ) ;
#267 = CALENDAR_DATE ( 2019, 9, 4 ) ;
#268 = AXIS2_PLACEMENT_3D ( 'NONE', #61, #290, #119 ) ;
#269 = DATE_AND_TIME ( #267, #37 ) ;
#270 = CARTESIAN_POINT ( 'NONE',  ( 0.0000000000000000000, 13.03657776635556700, 7.842050807568883300 ) ) ;
#271 = DIRECTION ( 'NONE',  ( -0.0000000000000000000, -0.0000000000000000000, 1.000000000000000000 ) ) ;
#272 = CARTESIAN_POINT ( 'NONE',  ( -11.00000000000000000, 1.347111479062088400E-015, 7.842050807568890400 ) ) ;
#273 = CARTESIAN_POINT ( 'NONE',  ( 0.0000000000000000000, 0.0000000000000000000, 0.0000000000000000000 ) ) ;
#274 = CARTESIAN_POINT ( 'NONE',  ( 13.00000000000000000, 0.0000000000000000000, 4.742050807568884500 ) ) ;
#275 = ADVANCED_FACE ( 'NONE', ( #58 ), #166, .T. ) ;
#276 =( NAMED_UNIT ( * ) PLANE_ANGLE_UNIT ( ) SI_UNIT ( $, .RADIAN. ) );
#277 = MECHANICAL_CONTEXT ( 'NONE', #108, 'mechanical' ) ;
#278 = DATE_AND_TIME ( #191, #89 ) ;
#279 = ORIENTED_EDGE ( 'NONE', *, *, #99, .T. ) ;
#280 = AXIS2_PLACEMENT_3D ( 'NONE', #364, #216, #385 ) ;
#281 = CARTESIAN_POINT ( 'NONE',  ( 10.26217568973925200, 0.0000000000000000000, 0.0000000000000000000 ) ) ;
#282 = CC_DESIGN_PERSON_AND_ORGANIZATION_ASSIGNMENT ( #44, #225, ( #357 ) ) ;
#283 = TOROIDAL_SURFACE ( 'NONE', #227, 9.012603057622234500, 0.4000000000000009700 ) ;
#284 = CARTESIAN_POINT ( 'NONE',  ( 0.0000000000000000000, 0.0000000000000000000, 0.0000000000000000000 ) ) ;
#285 = APPROVAL_DATE_TIME ( #278, #94 ) ;
#286 = EDGE_LOOP ( 'NONE', ( #224, #173, #15, #375 ) ) ;
#287 = DIRECTION ( 'NONE',  ( 0.1391731009600587800, 1.704378926181474000E-017, -0.9902680687415712500 ) ) ;
#288 = EDGE_CURVE ( 'NONE', #202, #178, #345, .T. ) ;
#289 = ORIENTED_EDGE ( 'NONE', *, *, #99, .F. ) ;
#290 = DIRECTION ( 'NONE',  ( -0.0000000000000000000, -0.0000000000000000000, 1.000000000000000000 ) ) ;
#291 = VECTOR ( 'NONE', #40, 1000.000000000000200 ) ;
#292 = EDGE_CURVE ( 'NONE', #141, #252, #221, .T. ) ;
#293 = DIRECTION ( 'NONE',  ( 0.0000000000000000000, 0.0000000000000000000, -1.000000000000000000 ) ) ;
#294 = CARTESIAN_POINT ( 'NONE',  ( 0.0000000000000000000, 0.0000000000000000000, 101.8074564848000400 ) ) ;
#295 = AXIS2_PLACEMENT_3D ( 'NONE', #270, #219, #298 ) ;
#296 = LINE ( 'NONE', #281, #291 ) ;
#297 = EDGE_CURVE ( 'NONE', #120, #167, #229, .T. ) ;
#298 = DIRECTION ( 'NONE',  ( 1.000000000000000000, 0.0000000000000000000, 0.0000000000000000000 ) ) ;
#299 = AXIS2_PLACEMENT_3D ( 'NONE', #284, #271, #169 ) ;
#300 = DIRECTION ( 'NONE',  ( -1.000000000000000000, 1.224646799147353200E-016, 0.0000000000000000000 ) ) ;
#301 = VECTOR ( 'NONE', #320, 1000.000000000000000 ) ;
#302 = CARTESIAN_POINT ( 'NONE',  ( -13.03657776635556700, 0.0000000000000000000, 7.842050807568876200 ) ) ;
#303 = DIRECTION ( 'NONE',  ( -1.000000000000000000, 0.0000000000000000000, 0.0000000000000000000 ) ) ;
#304 = ORIENTED_EDGE ( 'NONE', *, *, #292, .T. ) ;
#305 = DIRECTION ( 'NONE',  ( 0.0000000000000000000, 0.0000000000000000000, -1.000000000000000000 ) ) ;
#306 = APPROVAL_PERSON_ORGANIZATION ( #234, #80, #101 ) ;
#307 = EDGE_CURVE ( 'NONE', #316, #326, #72, .T. ) ;
#308 = DIRECTION ( 'NONE',  ( 1.000000000000000000, 0.0000000000000000000, 0.0000000000000000000 ) ) ;
#309 = FACE_OUTER_BOUND ( 'NONE', #206, .T. ) ;
#310 = CALENDAR_DATE ( 2019, 9, 4 ) ;
#311 = PLANE ( 'NONE',  #256 ) ;
#312 = AXIS2_PLACEMENT_3D ( 'NONE', #371, #38, #165 ) ;
#313 = ADVANCED_FACE ( 'NONE', ( #35, #314 ), #124, .F. ) ;
#314 = FACE_BOUND ( 'NONE', #132, .T. ) ;
#315 = AXIS2_PLACEMENT_3D ( 'NONE', #8, #373, #41 ) ;
#316 = VERTEX_POINT ( 'NONE', #181 ) ;
#317 = CALENDAR_DATE ( 2019, 9, 4 ) ;
#318 = EDGE_CURVE ( 'NONE', #167, #161, #156, .T. ) ;
#319 = CALENDAR_DATE ( 2019, 9, 4 ) ;
#320 = DIRECTION ( 'NONE',  ( -0.0000000000000000000, -0.0000000000000000000, 1.000000000000000000 ) ) ;
#321 = EDGE_CURVE ( 'NONE', #231, #178, #266, .T. ) ;
#322 = EDGE_CURVE ( 'NONE', #106, #202, #83, .T. ) ;
#323 = DIRECTION ( 'NONE',  ( -0.0000000000000000000, -0.0000000000000000000, 1.000000000000000000 ) ) ;
#324 = EDGE_CURVE ( 'NONE', #178, #202, #93, .T. ) ;
#325 = DIRECTION ( 'NONE',  ( 1.000000000000000000, 0.0000000000000000000, 0.0000000000000000000 ) ) ;
#326 = VERTEX_POINT ( 'NONE', #272 ) ;
#327 = EDGE_CURVE ( 'NONE', #106, #186, #341, .T. ) ;
#328 = ADVANCED_FACE ( 'NONE', ( #133 ), #22, .F. ) ;
#329 = DIRECTION ( 'NONE',  ( -0.4999999999999957800, 6.123233995736714300E-017, 0.8660254037844410400 ) ) ;
#330 = EDGE_CURVE ( 'NONE', #252, #316, #63, .T. ) ;
#331 = EDGE_CURVE ( 'NONE', #252, #141, #105, .T. ) ;
#332 = ORIENTED_EDGE ( 'NONE', *, *, #288, .T. ) ;
#333 = CC_DESIGN_PERSON_AND_ORGANIZATION_ASSIGNMENT ( #334, #351, ( #32 ) ) ;
#334 = PERSON_AND_ORGANIZATION ( #168, #77 ) ;
#335 = DIRECTION ( 'NONE',  ( 0.0000000000000000000, 0.0000000000000000000, -1.000000000000000000 ) ) ;
#336 = PERSON_AND_ORGANIZATION ( #168, #77 ) ;
#337 = EDGE_LOOP ( 'NONE', ( #240, #176, #100, #129 ) ) ;
#338 = DIRECTION ( 'NONE',  ( 1.000000000000000000, 0.0000000000000000000, 0.0000000000000000000 ) ) ;
#339 = AXIS2_PLACEMENT_3D ( 'NONE', #183, #139, #335 ) ;
#340 = CARTESIAN_POINT ( 'NONE',  ( 0.0000000000000000000, 0.0000000000000000000, 0.0000000000000000000 ) ) ;
#341 = LINE ( 'NONE', #130, #179 ) ;
#342 = CARTESIAN_POINT ( 'NONE',  ( 0.0000000000000000000, 0.0000000000000000000, 33.60000000000000100 ) ) ;
#343 = ADVANCED_BREP_SHAPE_REPRESENTATION ( 'TAP COLLET ER 25G  5.5  X 4.3', ( #109, #55 ), #379 ) ;
#344 = EDGE_CURVE ( 'NONE', #231, #106, #14, .T. ) ;
#345 = CIRCLE ( 'NONE', #247, 9.012603057622234500 ) ;
#346 = EDGE_CURVE ( 'NONE', #141, #326, #363, .T. ) ;
#347 = EDGE_CURVE ( 'NONE', #231, #95, #207, .T. ) ;
#348 = DIRECTION ( 'NONE',  ( 0.0000000000000000000, 0.0000000000000000000, -1.000000000000000000 ) ) ;
#349 = EDGE_LOOP ( 'NONE', ( #356, #137, #12, #79 ) ) ;
#350 = EDGE_CURVE ( 'NONE', #186, #95, #128, .T. ) ;
#351 = PERSON_AND_ORGANIZATION_ROLE ( 'classification_officer' ) ;
#352 = EDGE_CURVE ( 'NONE', #161, #167, #148, .T. ) ;
#353 = VECTOR ( 'NONE', #264, 1000.000000000000000 ) ;
#354 = PERSON_AND_ORGANIZATION ( #168, #77 ) ;
#355 = APPROVAL ( #213, 'UNSPECIFIED' ) ;
#356 = ORIENTED_EDGE ( 'NONE', *, *, #322, .F. ) ;
#357 = PRODUCT_DEFINITION_FORMATION_WITH_SPECIFIED_SOURCE ( 'ANY', '', #197, .NOT_KNOWN. ) ;
#358 = EDGE_CURVE ( 'NONE', #120, #153, #243, .T. ) ;
#359 = EDGE_LOOP ( 'NONE', ( #154, #88, #382, #25 ) ) ;
#360 = CARTESIAN_POINT ( 'NONE',  ( 0.0000000000000000000, 0.0000000000000000000, 4.742050807568884500 ) ) ;
#361 = EDGE_CURVE ( 'NONE', #153, #120, #135, .T. ) ;
#362 = ORIENTED_EDGE ( 'NONE', *, *, #347, .F. ) ;
#363 = LINE ( 'NONE', #200, #301 ) ;
#364 = CARTESIAN_POINT ( 'NONE',  ( 0.0000000000000000000, 0.0000000000000000000, 34.00000000000000000 ) ) ;
#365 = EDGE_LOOP ( 'NONE', ( #368, #304, #366, #289 ) ) ;
#366 = ORIENTED_EDGE ( 'NONE', *, *, #330, .T. ) ;
#367 = APPLICATION_PROTOCOL_DEFINITION ( 'international standard', 'config_control_design', 1994, #245 ) ;
#368 = ORIENTED_EDGE ( 'NONE', *, *, #346, .F. ) ;
#369 = DIRECTION ( 'NONE',  ( -0.0000000000000000000, -0.0000000000000000000, 1.000000000000000000 ) ) ;
#370 = DIRECTION ( 'NONE',  ( 0.0000000000000000000, 0.0000000000000000000, 1.000000000000000000 ) ) ;
#371 = CARTESIAN_POINT ( 'NONE',  ( 0.0000000000000000000, 0.0000000000000000000, 101.8074564848000400 ) ) ;
#372 = DIRECTION ( 'NONE',  ( -0.0000000000000000000, -0.0000000000000000000, 1.000000000000000000 ) ) ;
#373 = DIRECTION ( 'NONE',  ( 0.0000000000000000000, -0.0000000000000000000, 1.000000000000000000 ) ) ;
#374 = DATE_TIME_ROLE ( 'classification_date' ) ;
#375 = ORIENTED_EDGE ( 'NONE', *, *, #327, .F. ) ;
#376 = AXIS2_PLACEMENT_3D ( 'NONE', #118, #293, #203 ) ;
#377 = ADVANCED_FACE ( 'NONE', ( #13 ), #160, .T. ) ;
#378 = CIRCLE ( 'NONE', #142, 9.408710285118862900 ) ;
#379 =( GEOMETRIC_REPRESENTATION_CONTEXT ( 3 ) GLOBAL_UNCERTAINTY_ASSIGNED_CONTEXT ( ( #46 ) ) GLOBAL_UNIT_ASSIGNED_CONTEXT ( ( #91, #276, #113 ) ) REPRESENTATION_CONTEXT ( 'NONE', 'WORKASPACE' ) );
#380 = AXIS2_PLACEMENT_3D ( 'NONE', #86, #238, #241 ) ;
#381 = DIRECTION ( 'NONE',  ( -1.000000000000000000, 0.0000000000000000000, -0.0000000000000000000 ) ) ;
#382 = ORIENTED_EDGE ( 'NONE', *, *, #324, .F. ) ;
#383 = APPROVAL_DATE_TIME ( #138, #80 ) ;
#384 = DIRECTION ( 'NONE',  ( 1.000000000000000000, 0.0000000000000000000, 0.0000000000000000000 ) ) ;
#385 = DIRECTION ( 'NONE',  ( 1.000000000000000000, 0.0000000000000000000, 0.0000000000000000000 ) ) ;
#386 = EDGE_LOOP ( 'NONE', ( #149, #260 ) ) ;
#387 = ADVANCED_FACE ( 'NONE', ( #262 ), #31, .T. ) ;
ENDSEC;
END-ISO-10303-21;
