ISO-10303-21;
HEADER;
FILE_DESCRIPTION (( 'STEP AP203' ),
    '1' );
FILE_NAME ('TAP COLLET ER 25G  6.0  X 4.9.STEP',
    '2019-04-09T09:53:58',
    ( '' ),
    ( '' ),
    'SwSTEP 2.0',
    'SolidWorks 2014',
    '' );
FILE_SCHEMA (( 'CONFIG_CONTROL_DESIGN' ));
ENDSEC;

DATA;
#1 = CYLINDRICAL_SURFACE ( 'NONE', #234, 11.00000000000000000 ) ;
#2 = DIRECTION ( 'NONE',  ( 0.0000000000000000000, 0.0000000000000000000, -1.000000000000000000 ) ) ;
#3 = APPLICATION_PROTOCOL_DEFINITION ( 'international standard', 'config_control_design', 1994, #27 ) ;
#4 = ADVANCED_FACE ( 'NONE', ( #222 ), #97, .T. ) ;
#5 = DIRECTION ( 'NONE',  ( 0.0000000000000000000, 0.0000000000000000000, -1.000000000000000000 ) ) ;
#6 = APPROVAL_STATUS ( 'not_yet_approved' ) ;
#7 = AXIS2_PLACEMENT_3D ( 'NONE', #23, #387, #168 ) ;
#8 = CARTESIAN_POINT ( 'NONE',  ( -11.00000000000000000, 1.347111479062088400E-015, 4.742050807568884500 ) ) ;
#9 = CC_DESIGN_APPROVAL ( #62, ( #383 ) ) ;
#10 = DIRECTION ( 'NONE',  ( 1.000000000000000000, 0.0000000000000000000, 0.0000000000000000000 ) ) ;
#11 = FACE_BOUND ( 'NONE', #328, .T. ) ;
#12 = ADVANCED_FACE ( 'NONE', ( #237 ), #66, .F. ) ;
#13 = DATE_AND_TIME ( #240, #117 ) ;
#14 = DIRECTION ( 'NONE',  ( -0.0000000000000000000, -0.0000000000000000000, 1.000000000000000000 ) ) ;
#15 = ORIENTED_EDGE ( 'NONE', *, *, #169, .F. ) ;
#16 = CARTESIAN_POINT ( 'NONE',  ( 0.0000000000000000000, 0.0000000000000000000, 0.0000000000000000000 ) ) ;
#17 = AXIS2_PLACEMENT_3D ( 'NONE', #357, #204, #149 ) ;
#18 = ORIENTED_EDGE ( 'NONE', *, *, #319, .F. ) ;
#19 = AXIS2_PLACEMENT_3D ( 'NONE', #381, #382, #75 ) ;
#20 = DIRECTION ( 'NONE',  ( 1.000000000000000000, 0.0000000000000000000, 0.0000000000000000000 ) ) ;
#21 = CIRCLE ( 'NONE', #188, 11.00000000000000000 ) ;
#22 = EDGE_LOOP ( 'NONE', ( #63, #217, #191, #26 ) ) ;
#23 = CARTESIAN_POINT ( 'NONE',  ( 0.0000000000000000000, 0.0000000000000000000, 4.742050807568884500 ) ) ;
#24 = CARTESIAN_POINT ( 'NONE',  ( -9.012603057622234500, 1.127980121063915600E-015, 34.00000000000000000 ) ) ;
#25 = CC_DESIGN_PERSON_AND_ORGANIZATION_ASSIGNMENT ( #183, #299, ( #251 ) ) ;
#26 = ORIENTED_EDGE ( 'NONE', *, *, #314, .F. ) ;
#27 = APPLICATION_CONTEXT ( 'configuration controlled 3d designs of mechanical parts and assemblies' ) ;
#28 = CARTESIAN_POINT ( 'NONE',  ( 0.0000000000000000000, 0.0000000000000000000, 7.842050807568876200 ) ) ;
#29 = VECTOR ( 'NONE', #81, 1000.000000000000200 ) ;
#30 = ORIENTED_EDGE ( 'NONE', *, *, #325, .F. ) ;
#31 = CARTESIAN_POINT ( 'NONE',  ( 0.0000000000000000000, 0.0000000000000000000, 4.742050807568884500 ) ) ;
#32 = EDGE_LOOP ( 'NONE', ( #245, #78 ) ) ;
#33 = CIRCLE ( 'NONE', #283, 10.26217568973925200 ) ;
#34 = ADVANCED_FACE ( 'NONE', ( #308 ), #342, .T. ) ;
#35 = PERSON_AND_ORGANIZATION ( #348, #43 ) ;
#36 = AXIS2_PLACEMENT_3D ( 'NONE', #358, #172, #2 ) ;
#37 = DIRECTION ( 'NONE',  ( -0.0000000000000000000, -0.0000000000000000000, 1.000000000000000000 ) ) ;
#38 = ORIENTED_EDGE ( 'NONE', *, *, #318, .F. ) ;
#39 = DIRECTION ( 'NONE',  ( 1.000000000000000000, 0.0000000000000000000, 0.0000000000000000000 ) ) ;
#40 = DATE_AND_TIME ( #244, #99 ) ;
#41 = ORIENTED_EDGE ( 'NONE', *, *, #122, .T. ) ;
#42 = COORDINATED_UNIVERSAL_TIME_OFFSET ( 5, 30, .AHEAD. ) ;
#43 = ORGANIZATION ( 'UNSPECIFIED', 'UNSPECIFIED', '' ) ;
#44 = EDGE_LOOP ( 'NONE', ( #277, #307, #368, #157 ) ) ;
#45 = CIRCLE ( 'NONE', #17, 9.408710285118862900 ) ;
#46 = DIRECTION ( 'NONE',  ( 1.000000000000000000, 0.0000000000000000000, 0.0000000000000000000 ) ) ;
#47 = DIRECTION ( 'NONE',  ( 1.000000000000000000, 0.0000000000000000000, 0.0000000000000000000 ) ) ;
#48 = ORIENTED_EDGE ( 'NONE', *, *, #306, .F. ) ;
#49 = VERTEX_POINT ( 'NONE', #207 ) ;
#50 = DIRECTION ( 'NONE',  ( 1.000000000000000000, 0.0000000000000000000, 0.0000000000000000000 ) ) ;
#51 = CARTESIAN_POINT ( 'NONE',  ( 0.0000000000000000000, 0.0000000000000000000, 0.0000000000000000000 ) ) ;
#52 = VERTEX_POINT ( 'NONE', #227 ) ;
#53 = LOCAL_TIME ( 15, 23, 58.00000000000000000, #378 ) ;
#54 = AXIS2_PLACEMENT_3D ( 'NONE', #337, #344, #193 ) ;
#55 = PERSON_AND_ORGANIZATION_ROLE ( 'creator' ) ;
#56 = CC_DESIGN_DATE_AND_TIME_ASSIGNMENT ( #13, #148, ( #383 ) ) ;
#57 = FACE_OUTER_BOUND ( 'NONE', #137, .T. ) ;
#58 = DIRECTION ( 'NONE',  ( -0.4999999999999957800, 6.123233995736714300E-017, 0.8660254037844410400 ) ) ;
#59 = PERSON_AND_ORGANIZATION ( #348, #43 ) ;
#60 = ADVANCED_FACE ( 'NONE', ( #229, #11 ), #287, .F. ) ;
#61 = CARTESIAN_POINT ( 'NONE',  ( -10.26217568973925200, 1.424397449982127500E-015, 0.0000000000000000000 ) ) ;
#62 = APPROVAL ( #6, 'UNSPECIFIED' ) ;
#63 = ORIENTED_EDGE ( 'NONE', *, *, #286, .F. ) ;
#64 = ORIENTED_EDGE ( 'NONE', *, *, #339, .T. ) ;
#65 = CALENDAR_DATE ( 2019, 9, 4 ) ;
#66 = PLANE ( 'NONE',  #54 ) ;
#67 = DIRECTION ( 'NONE',  ( -0.0000000000000000000, -0.0000000000000000000, 1.000000000000000000 ) ) ;
#68 = EDGE_LOOP ( 'NONE', ( #41, #272 ) ) ;
#69 = CIRCLE ( 'NONE', #273, 9.408710285118862900 ) ;
#70 = COORDINATED_UNIVERSAL_TIME_OFFSET ( 5, 30, .AHEAD. ) ;
#71 = AXIS2_PLACEMENT_3D ( 'NONE', #16, #100, #39 ) ;
#72 = DIRECTION ( 'NONE',  ( 0.0000000000000000000, -0.0000000000000000000, 1.000000000000000000 ) ) ;
#73 = ORIENTED_EDGE ( 'NONE', *, *, #152, .T. ) ;
#74 = ADVANCED_FACE ( 'NONE', ( #57 ), #161, .T. ) ;
#75 = DIRECTION ( 'NONE',  ( 1.000000000000000000, 0.0000000000000000000, 0.0000000000000000000 ) ) ;
#76 = DIRECTION ( 'NONE',  ( -1.000000000000000000, 1.224646799147353200E-016, 0.0000000000000000000 ) ) ;
#77 = ADVANCED_FACE ( 'NONE', ( #176 ), #142, .T. ) ;
#78 = ORIENTED_EDGE ( 'NONE', *, *, #314, .T. ) ;
#79 = ORIENTED_EDGE ( 'NONE', *, *, #295, .T. ) ;
#80 = CARTESIAN_POINT ( 'NONE',  ( 10.26217568973925200, 0.0000000000000000000, 0.0000000000000000000 ) ) ;
#81 = DIRECTION ( 'NONE',  ( 0.4999999999999957800, 0.0000000000000000000, 0.8660254037844410400 ) ) ;
#82 = PERSON_AND_ORGANIZATION ( #348, #43 ) ;
#83 = APPLICATION_CONTEXT ( 'configuration controlled 3d designs of mechanical parts and assemblies' ) ;
#84 = DIRECTION ( 'NONE',  ( -0.0000000000000000000, -0.0000000000000000000, 1.000000000000000000 ) ) ;
#85 = APPROVAL_STATUS ( 'not_yet_approved' ) ;
#86 = CARTESIAN_POINT ( 'NONE',  ( 0.0000000000000000000, 0.0000000000000000000, 33.65566924038402900 ) ) ;
#87 = VERTEX_POINT ( 'NONE', #194 ) ;
#88 = CIRCLE ( 'NONE', #216, 0.4000000000000010200 ) ;
#89 = APPROVAL ( #85, 'UNSPECIFIED' ) ;
#90 = VERTEX_POINT ( 'NONE', #24 ) ;
#91 = CIRCLE ( 'NONE', #7, 13.00000000000000000 ) ;
#92 = AXIS2_PLACEMENT_3D ( 'NONE', #347, #72, #255 ) ;
#93 = CARTESIAN_POINT ( 'NONE',  ( 0.0000000000000000000, 0.0000000000000000000, 101.8074564848000400 ) ) ;
#94 = AXIS2_PLACEMENT_3D ( 'NONE', #131, #225, #46 ) ;
#95 = CIRCLE ( 'NONE', #158, 11.00000000000000000 ) ;
#96 = DIRECTION ( 'NONE',  ( -0.0000000000000000000, -0.0000000000000000000, 1.000000000000000000 ) ) ;
#97 = TOROIDAL_SURFACE ( 'NONE', #94, 9.012603057622234500, 0.4000000000000009700 ) ;
#98 = ADVANCED_FACE ( 'NONE', ( #312 ), #369, .T. ) ;
#99 = LOCAL_TIME ( 15, 23, 58.00000000000000000, #70 ) ;
#100 = DIRECTION ( 'NONE',  ( -0.0000000000000000000, -0.0000000000000000000, 1.000000000000000000 ) ) ;
#101 = AXIS2_PLACEMENT_3D ( 'NONE', #266, #326, #297 ) ;
#102 = CIRCLE ( 'NONE', #258, 13.00000000000000000 ) ;
#103 = APPROVAL_PERSON_ORGANIZATION ( #315, #62, #214 ) ;
#104 = ADVANCED_FACE ( 'NONE', ( #186, #159 ), #243, .F. ) ;
#105 = ORIENTED_EDGE ( 'NONE', *, *, #306, .T. ) ;
#106 = DIRECTION ( 'NONE',  ( -0.0000000000000000000, -0.0000000000000000000, 1.000000000000000000 ) ) ;
#107 = ORIENTED_EDGE ( 'NONE', *, *, #151, .T. ) ;
#108 = ORIENTED_EDGE ( 'NONE', *, *, #298, .F. ) ;
#109 = DIRECTION ( 'NONE',  ( 0.0000000000000000000, 0.0000000000000000000, -1.000000000000000000 ) ) ;
#110 =( GEOMETRIC_REPRESENTATION_CONTEXT ( 3 ) GLOBAL_UNCERTAINTY_ASSIGNED_CONTEXT ( ( #338 ) ) GLOBAL_UNIT_ASSIGNED_CONTEXT ( ( #118, #239, #210 ) ) REPRESENTATION_CONTEXT ( 'NONE', 'WORKASPACE' ) );
#111 = DIRECTION ( 'NONE',  ( -1.000000000000000000, 0.0000000000000000000, 0.0000000000000000000 ) ) ;
#112 = DIRECTION ( 'NONE',  ( -0.0000000000000000000, -0.0000000000000000000, 1.000000000000000000 ) ) ;
#113 = VERTEX_POINT ( 'NONE', #292 ) ;
#114 = DIRECTION ( 'NONE',  ( 0.0000000000000000000, 0.0000000000000000000, 1.000000000000000000 ) ) ;
#115 = AXIS2_PLACEMENT_3D ( 'NONE', #385, #293, #235 ) ;
#116 = APPROVAL_ROLE ( '' ) ;
#117 = LOCAL_TIME ( 15, 23, 58.00000000000000000, #215 ) ;
#118 =( LENGTH_UNIT ( ) NAMED_UNIT ( * ) SI_UNIT ( .MILLI., .METRE. ) );
#119 = CC_DESIGN_PERSON_AND_ORGANIZATION_ASSIGNMENT ( #82, #329, ( #251 ) ) ;
#120 = DIRECTION ( 'NONE',  ( -0.0000000000000000000, -0.0000000000000000000, 1.000000000000000000 ) ) ;
#121 = EDGE_LOOP ( 'NONE', ( #38, #134 ) ) ;
#122 = EDGE_CURVE ( 'NONE', #49, #90, #332, .T. ) ;
#123 = LOCAL_TIME ( 15, 23, 58.00000000000000000, #42 ) ;
#124 = DIRECTION ( 'NONE',  ( 1.000000000000000000, 0.0000000000000000000, 0.0000000000000000000 ) ) ;
#125 = APPROVAL_PERSON_ORGANIZATION ( #206, #356, #242 ) ;
#126 = FACE_OUTER_BOUND ( 'NONE', #316, .T. ) ;
#127 = CIRCLE ( 'NONE', #101, 11.00000000000000000 ) ;
#128 = VECTOR ( 'NONE', #354, 1000.000000000000000 ) ;
#129 = CARTESIAN_POINT ( 'NONE',  ( 0.0000000000000000000, 0.0000000000000000000, 34.00000000000000000 ) ) ;
#130 = CC_DESIGN_APPROVAL ( #89, ( #251 ) ) ;
#131 = CARTESIAN_POINT ( 'NONE',  ( 0.0000000000000000000, 0.0000000000000000000, 33.60000000000000100 ) ) ;
#132 = CIRCLE ( 'NONE', #264, 11.00000000000000000 ) ;
#133 = DIRECTION ( 'NONE',  ( -0.0000000000000000000, -0.0000000000000000000, 1.000000000000000000 ) ) ;
#134 = ORIENTED_EDGE ( 'NONE', *, *, #260, .F. ) ;
#135 = VECTOR ( 'NONE', #112, 1000.000000000000000 ) ;
#136 = CARTESIAN_POINT ( 'NONE',  ( 0.0000000000000000000, 0.0000000000000000000, 33.60000000000000100 ) ) ;
#137 = EDGE_LOOP ( 'NONE', ( #236, #303, #205, #379 ) ) ;
#138 = VERTEX_POINT ( 'NONE', #233 ) ;
#139 = CARTESIAN_POINT ( 'NONE',  ( 0.0000000000000000000, 0.0000000000000000000, 0.0000000000000000000 ) ) ;
#140 = SHAPE_DEFINITION_REPRESENTATION ( #197, #248 ) ;
#141 = DIRECTION ( 'NONE',  ( 1.000000000000000000, 0.0000000000000000000, 0.0000000000000000000 ) ) ;
#142 = CONICAL_SURFACE ( 'NONE', #254, 10.26217568973925200, 0.5235987755982940400 ) ;
#143 = CC_DESIGN_SECURITY_CLASSIFICATION ( #383, ( #251 ) ) ;
#144 = CARTESIAN_POINT ( 'NONE',  ( 0.0000000000000000000, 0.0000000000000000000, 0.0000000000000000000 ) ) ;
#145 = MECHANICAL_CONTEXT ( 'NONE', #83, 'mechanical' ) ;
#146 = CARTESIAN_POINT ( 'NONE',  ( 0.0000000000000000000, 0.0000000000000000000, 7.842050807568876200 ) ) ;
#147 = ORIENTED_EDGE ( 'NONE', *, *, #350, .F. ) ;
#148 = DATE_TIME_ROLE ( 'classification_date' ) ;
#149 = DIRECTION ( 'NONE',  ( 1.000000000000000000, 0.0000000000000000000, 0.0000000000000000000 ) ) ;
#150 = EDGE_LOOP ( 'NONE', ( #196, #15 ) ) ;
#151 = EDGE_CURVE ( 'NONE', #138, #296, #95, .T. ) ;
#152 = EDGE_CURVE ( 'NONE', #113, #313, #154, .T. ) ;
#153 = ORIENTED_EDGE ( 'NONE', *, *, #169, .T. ) ;
#154 = LINE ( 'NONE', #280, #380 ) ;
#155 = DIRECTION ( 'NONE',  ( -0.0000000000000000000, -0.0000000000000000000, 1.000000000000000000 ) ) ;
#156 = EDGE_LOOP ( 'NONE', ( #108, #226, #73, #317 ) ) ;
#157 = ORIENTED_EDGE ( 'NONE', *, *, #365, .F. ) ;
#158 = AXIS2_PLACEMENT_3D ( 'NONE', #310, #37, #223 ) ;
#159 = FACE_OUTER_BOUND ( 'NONE', #32, .T. ) ;
#160 = EDGE_LOOP ( 'NONE', ( #261, #282, #30, #18 ) ) ;
#161 = TOROIDAL_SURFACE ( 'NONE', #377, 9.012603057622234500, 0.4000000000000009700 ) ;
#162 = FACE_OUTER_BOUND ( 'NONE', #195, .T. ) ;
#163 = ADVANCED_FACE ( 'NONE', ( #126 ), #1, .T. ) ;
#164 = CC_DESIGN_PERSON_AND_ORGANIZATION_ASSIGNMENT ( #366, #178, ( #383 ) ) ;
#165 = CARTESIAN_POINT ( 'NONE',  ( -9.012603057622234500, 1.103725548650271700E-015, 33.60000000000000100 ) ) ;
#166 = EDGE_CURVE ( 'NONE', #296, #190, #351, .T. ) ;
#167 = APPROVAL_DATE_TIME ( #330, #356 ) ;
#168 = DIRECTION ( 'NONE',  ( 1.000000000000000000, 0.0000000000000000000, 0.0000000000000000000 ) ) ;
#169 = EDGE_CURVE ( 'NONE', #52, #313, #360, .T. ) ;
#170 = DATE_AND_TIME ( #271, #250 ) ;
#171 = DIRECTION ( 'NONE',  ( 0.0000000000000000000, -0.0000000000000000000, 1.000000000000000000 ) ) ;
#172 = DIRECTION ( 'NONE',  ( 0.0000000000000000000, -1.000000000000000000, 0.0000000000000000000 ) ) ;
#173 = CARTESIAN_POINT ( 'NONE',  ( 0.0000000000000000000, 0.0000000000000000000, 0.0000000000000000000 ) ) ;
#174 = APPLICATION_PROTOCOL_DEFINITION ( 'international standard', 'config_control_design', 1994, #83 ) ;
#175 = DIRECTION ( 'NONE',  ( -0.0000000000000000000, -0.0000000000000000000, 1.000000000000000000 ) ) ;
#176 = FACE_OUTER_BOUND ( 'NONE', #22, .T. ) ;
#177 = LINE ( 'NONE', #249, #135 ) ;
#178 = PERSON_AND_ORGANIZATION_ROLE ( 'classification_officer' ) ;
#179 = DIRECTION ( 'NONE',  ( -0.0000000000000000000, -0.0000000000000000000, 1.000000000000000000 ) ) ;
#180 = ADVANCED_FACE ( 'NONE', ( #268 ), #224, .T. ) ;
#181 = EDGE_LOOP ( 'NONE', ( #228, #147 ) ) ;
#182 = PLANE ( 'NONE',  #221 ) ;
#183 = PERSON_AND_ORGANIZATION ( #348, #43 ) ;
#184 = PRODUCT_RELATED_PRODUCT_CATEGORY ( 'detail', '', ( #343 ) ) ;
#185 = AXIS2_PLACEMENT_3D ( 'NONE', #320, #67, #124 ) ;
#186 = FACE_BOUND ( 'NONE', #181, .T. ) ;
#187 = CIRCLE ( 'NONE', #36, 0.3999999999999975800 ) ;
#188 = AXIS2_PLACEMENT_3D ( 'NONE', #362, #179, #208 ) ;
#189 = DATE_AND_TIME ( #345, #53 ) ;
#190 = VERTEX_POINT ( 'NONE', #211 ) ;
#191 = ORIENTED_EDGE ( 'NONE', *, *, #319, .T. ) ;
#192 = LINE ( 'NONE', #291, #29 ) ;
#193 = DIRECTION ( 'NONE',  ( -1.000000000000000000, 0.0000000000000000000, -0.0000000000000000000 ) ) ;
#194 = CARTESIAN_POINT ( 'NONE',  ( 9.408710285118862900, 1.374377508408924700E-015, 33.65566924038402900 ) ) ;
#195 = EDGE_LOOP ( 'NONE', ( #209, #370, #64, #48 ) ) ;
#196 = ORIENTED_EDGE ( 'NONE', *, *, #300, .F. ) ;
#197 = PRODUCT_DEFINITION_SHAPE ( 'NONE', 'NONE',  #341 ) ;
#198 = VERTEX_POINT ( 'NONE', #61 ) ;
#199 = CARTESIAN_POINT ( 'NONE',  ( 0.0000000000000000000, 0.0000000000000000000, 7.842050807568890400 ) ) ;
#200 = AXIS2_PLACEMENT_3D ( 'NONE', #28, #84, #267 ) ;
#201 = DIRECTION ( 'NONE',  ( 1.000000000000000000, 0.0000000000000000000, 0.0000000000000000000 ) ) ;
#202 = VERTEX_POINT ( 'NONE', #386 ) ;
#203 = DIRECTION ( 'NONE',  ( 0.0000000000000000000, 0.0000000000000000000, -1.000000000000000000 ) ) ;
#204 = DIRECTION ( 'NONE',  ( -0.0000000000000000000, -0.0000000000000000000, 1.000000000000000000 ) ) ;
#205 = ORIENTED_EDGE ( 'NONE', *, *, #365, .T. ) ;
#206 = PERSON_AND_ORGANIZATION ( #348, #43 ) ;
#207 = CARTESIAN_POINT ( 'NONE',  ( 9.012603057622234500, 0.0000000000000000000, 34.00000000000000000 ) ) ;
#208 = DIRECTION ( 'NONE',  ( 1.000000000000000000, 0.0000000000000000000, 0.0000000000000000000 ) ) ;
#209 = ORIENTED_EDGE ( 'NONE', *, *, #166, .F. ) ;
#210 =( NAMED_UNIT ( * ) SI_UNIT ( $, .STERADIAN. ) SOLID_ANGLE_UNIT ( ) );
#211 = CARTESIAN_POINT ( 'NONE',  ( -11.00000000000000000, 1.347111479062088400E-015, 7.842050807568890400 ) ) ;
#212 = LINE ( 'NONE', #372, #128 ) ;
#213 = APPROVAL_STATUS ( 'not_yet_approved' ) ;
#214 = APPROVAL_ROLE ( '' ) ;
#215 = COORDINATED_UNIVERSAL_TIME_OFFSET ( 5, 30, .AHEAD. ) ;
#216 = AXIS2_PLACEMENT_3D ( 'NONE', #165, #384, #76 ) ;
#217 = ORIENTED_EDGE ( 'NONE', *, *, #260, .T. ) ;
#218 = ORIENTED_EDGE ( 'NONE', *, *, #304, .F. ) ;
#219 = APPROVAL_PERSON_ORGANIZATION ( #35, #89, #116 ) ;
#220 = CARTESIAN_POINT ( 'NONE',  ( 0.0000000000000000000, 0.0000000000000000000, 101.8074564848000400 ) ) ;
#221 = AXIS2_PLACEMENT_3D ( 'NONE', #173, #171, #10 ) ;
#222 = FACE_OUTER_BOUND ( 'NONE', #44, .T. ) ;
#223 = DIRECTION ( 'NONE',  ( 1.000000000000000000, 0.0000000000000000000, 0.0000000000000000000 ) ) ;
#224 = CONICAL_SURFACE ( 'NONE', #230, 13.03657776635556700, 0.1396263401595396500 ) ;
#225 = DIRECTION ( 'NONE',  ( -0.0000000000000000000, -0.0000000000000000000, 1.000000000000000000 ) ) ;
#226 = ORIENTED_EDGE ( 'NONE', *, *, #302, .F. ) ;
#227 = CARTESIAN_POINT ( 'NONE',  ( 13.03657776635556700, 1.596520323340289600E-015, 7.842050807568876200 ) ) ;
#228 = ORIENTED_EDGE ( 'NONE', *, *, #151, .F. ) ;
#229 = FACE_OUTER_BOUND ( 'NONE', #150, .T. ) ;
#230 = AXIS2_PLACEMENT_3D ( 'NONE', #146, #5, #111 ) ;
#231 = AXIS2_PLACEMENT_3D ( 'NONE', #331, #203, #301 ) ;
#232 = AXIS2_PLACEMENT_3D ( 'NONE', #93, #155, #276 ) ;
#233 = CARTESIAN_POINT ( 'NONE',  ( 11.00000000000000000, 0.0000000000000000000, 4.742050807568884500 ) ) ;
#234 = AXIS2_PLACEMENT_3D ( 'NONE', #220, #96, #349 ) ;
#235 = DIRECTION ( 'NONE',  ( 1.000000000000000000, 0.0000000000000000000, 0.0000000000000000000 ) ) ;
#236 = ORIENTED_EDGE ( 'NONE', *, *, #290, .F. ) ;
#237 = FACE_OUTER_BOUND ( 'NONE', #68, .T. ) ;
#238 = ADVANCED_FACE ( 'NONE', ( #162 ), #376, .T. ) ;
#239 =( NAMED_UNIT ( * ) PLANE_ANGLE_UNIT ( ) SI_UNIT ( $, .RADIAN. ) );
#240 = CALENDAR_DATE ( 2019, 9, 4 ) ;
#241 = DIRECTION ( 'NONE',  ( 1.000000000000000000, 0.0000000000000000000, 0.0000000000000000000 ) ) ;
#242 = APPROVAL_ROLE ( '' ) ;
#243 = PLANE ( 'NONE',  #257 ) ;
#244 = CALENDAR_DATE ( 2019, 9, 4 ) ;
#245 = ORIENTED_EDGE ( 'NONE', *, *, #325, .T. ) ;
#246 = ADVANCED_FACE ( 'NONE', ( #321 ), #182, .F. ) ;
#247 = CARTESIAN_POINT ( 'NONE',  ( -10.26217568973925200, 1.256754061072695800E-015, 0.0000000000000000000 ) ) ;
#248 = ADVANCED_BREP_SHAPE_REPRESENTATION ( 'TAP COLLET ER 25G  6.0  X 4.9', ( #374, #334 ), #110 ) ;
#249 = CARTESIAN_POINT ( 'NONE',  ( 11.00000000000000000, 0.0000000000000000000, 101.8074564848000400 ) ) ;
#250 = LOCAL_TIME ( 15, 23, 58.00000000000000000, #294 ) ;
#251 = PRODUCT_DEFINITION_FORMATION_WITH_SPECIFIED_SOURCE ( 'ANY', '', #343, .NOT_KNOWN. ) ;
#252 = DESIGN_CONTEXT ( 'detailed design', #27, 'design' ) ;
#253 = DIRECTION ( 'NONE',  ( 1.000000000000000000, 0.0000000000000000000, 0.0000000000000000000 ) ) ;
#254 = AXIS2_PLACEMENT_3D ( 'NONE', #139, #106, #47 ) ;
#255 = DIRECTION ( 'NONE',  ( 1.000000000000000000, 0.0000000000000000000, 0.0000000000000000000 ) ) ;
#256 = ORIENTED_EDGE ( 'NONE', *, *, #152, .F. ) ;
#257 = AXIS2_PLACEMENT_3D ( 'NONE', #323, #109, #324 ) ;
#258 = AXIS2_PLACEMENT_3D ( 'NONE', #31, #352, #201 ) ;
#259 = VERTEX_POINT ( 'NONE', #275 ) ;
#260 = EDGE_CURVE ( 'NONE', #198, #375, #33, .T. ) ;
#261 = ORIENTED_EDGE ( 'NONE', *, *, #318, .T. ) ;
#262 = CARTESIAN_POINT ( 'NONE',  ( -11.00000000000000000, 1.347111479062088400E-015, 101.8074564848000400 ) ) ;
#263 = DIRECTION ( 'NONE',  ( -0.1391731009600587800, 0.0000000000000000000, -0.9902680687415712500 ) ) ;
#264 = AXIS2_PLACEMENT_3D ( 'NONE', #199, #288, #50 ) ;
#265 = LINE ( 'NONE', #247, #305 ) ;
#266 = CARTESIAN_POINT ( 'NONE',  ( 0.0000000000000000000, 0.0000000000000000000, 4.742050807568884500 ) ) ;
#267 = DIRECTION ( 'NONE',  ( 1.000000000000000000, 0.0000000000000000000, 0.0000000000000000000 ) ) ;
#268 = FACE_OUTER_BOUND ( 'NONE', #289, .T. ) ;
#269 = DATE_TIME_ROLE ( 'creation_date' ) ;
#270 = ORIENTED_EDGE ( 'NONE', *, *, #295, .F. ) ;
#271 = CALENDAR_DATE ( 2019, 9, 4 ) ;
#272 = ORIENTED_EDGE ( 'NONE', *, *, #311, .T. ) ;
#273 = AXIS2_PLACEMENT_3D ( 'NONE', #86, #340, #141 ) ;
#274 = ORIENTED_EDGE ( 'NONE', *, *, #166, .T. ) ;
#275 = CARTESIAN_POINT ( 'NONE',  ( -13.00000000000000000, 1.592040838891559100E-015, 4.742050807568884500 ) ) ;
#276 = DIRECTION ( 'NONE',  ( 1.000000000000000000, 0.0000000000000000000, 0.0000000000000000000 ) ) ;
#277 = ORIENTED_EDGE ( 'NONE', *, *, #304, .T. ) ;
#278 = CIRCLE ( 'NONE', #115, 10.26217568973925200 ) ;
#279 = AXIS2_PLACEMENT_3D ( 'NONE', #129, #133, #253 ) ;
#280 = CARTESIAN_POINT ( 'NONE',  ( -13.03657776635556700, 0.0000000000000000000, 7.842050807568876200 ) ) ;
#281 = ORIENTED_EDGE ( 'NONE', *, *, #339, .F. ) ;
#282 = ORIENTED_EDGE ( 'NONE', *, *, #286, .T. ) ;
#283 = AXIS2_PLACEMENT_3D ( 'NONE', #144, #14, #241 ) ;
#284 = ORIENTED_EDGE ( 'NONE', *, *, #298, .T. ) ;
#285 = CIRCLE ( 'NONE', #185, 13.03657776635556700 ) ;
#286 = EDGE_CURVE ( 'NONE', #198, #259, #265, .T. ) ;
#287 = PLANE ( 'NONE',  #92 ) ;
#288 = DIRECTION ( 'NONE',  ( -0.0000000000000000000, -0.0000000000000000000, 1.000000000000000000 ) ) ;
#289 = EDGE_LOOP ( 'NONE', ( #218, #284, #153, #256 ) ) ;
#290 = EDGE_CURVE ( 'NONE', #113, #90, #88, .T. ) ;
#291 = CARTESIAN_POINT ( 'NONE',  ( 10.26217568973925200, 0.0000000000000000000, 0.0000000000000000000 ) ) ;
#292 = CARTESIAN_POINT ( 'NONE',  ( -9.408710285118862900, 0.0000000000000000000, 33.65566924038402900 ) ) ;
#293 = DIRECTION ( 'NONE',  ( -0.0000000000000000000, -0.0000000000000000000, 1.000000000000000000 ) ) ;
#294 = COORDINATED_UNIVERSAL_TIME_OFFSET ( 5, 30, .AHEAD. ) ;
#295 = EDGE_CURVE ( 'NONE', #202, #190, #21, .T. ) ;
#296 = VERTEX_POINT ( 'NONE', #8 ) ;
#297 = DIRECTION ( 'NONE',  ( 1.000000000000000000, 0.0000000000000000000, 0.0000000000000000000 ) ) ;
#298 = EDGE_CURVE ( 'NONE', #87, #52, #212, .T. ) ;
#299 = PERSON_AND_ORGANIZATION_ROLE ( 'design_supplier' ) ;
#300 = EDGE_CURVE ( 'NONE', #313, #52, #285, .T. ) ;
#301 = DIRECTION ( 'NONE',  ( -1.000000000000000000, 0.0000000000000000000, 0.0000000000000000000 ) ) ;
#302 = EDGE_CURVE ( 'NONE', #113, #87, #45, .T. ) ;
#303 = ORIENTED_EDGE ( 'NONE', *, *, #302, .T. ) ;
#304 = EDGE_CURVE ( 'NONE', #87, #113, #69, .T. ) ;
#305 = VECTOR ( 'NONE', #58, 1000.000000000000200 ) ;
#306 = EDGE_CURVE ( 'NONE', #190, #202, #132, .T. ) ;
#307 = ORIENTED_EDGE ( 'NONE', *, *, #290, .T. ) ;
#308 = FACE_OUTER_BOUND ( 'NONE', #160, .T. ) ;
#309 = PERSON_AND_ORGANIZATION ( #348, #43 ) ;
#310 = CARTESIAN_POINT ( 'NONE',  ( 0.0000000000000000000, 0.0000000000000000000, 4.742050807568884500 ) ) ;
#311 = EDGE_CURVE ( 'NONE', #90, #49, #363, .T. ) ;
#312 = FACE_OUTER_BOUND ( 'NONE', #156, .T. ) ;
#313 = VERTEX_POINT ( 'NONE', #322 ) ;
#314 = EDGE_CURVE ( 'NONE', #259, #333, #102, .T. ) ;
#315 = PERSON_AND_ORGANIZATION ( #348, #43 ) ;
#316 = EDGE_LOOP ( 'NONE', ( #107, #274, #270, #281 ) ) ;
#317 = ORIENTED_EDGE ( 'NONE', *, *, #300, .T. ) ;
#318 = EDGE_CURVE ( 'NONE', #375, #198, #278, .T. ) ;
#319 = EDGE_CURVE ( 'NONE', #375, #333, #192, .T. ) ;
#320 = CARTESIAN_POINT ( 'NONE',  ( 0.0000000000000000000, 0.0000000000000000000, 7.842050807568876200 ) ) ;
#321 = FACE_OUTER_BOUND ( 'NONE', #121, .T. ) ;
#322 = CARTESIAN_POINT ( 'NONE',  ( -13.03657776635556700, 0.0000000000000000000, 7.842050807568876200 ) ) ;
#323 = CARTESIAN_POINT ( 'NONE',  ( 0.0000000000000000000, 13.00000000000000000, 4.742050807568884500 ) ) ;
#324 = DIRECTION ( 'NONE',  ( -1.000000000000000000, 0.0000000000000000000, -0.0000000000000000000 ) ) ;
#325 = EDGE_CURVE ( 'NONE', #333, #259, #91, .T. ) ;
#326 = DIRECTION ( 'NONE',  ( -0.0000000000000000000, -0.0000000000000000000, 1.000000000000000000 ) ) ;
#327 = DIRECTION ( 'NONE',  ( 1.000000000000000000, 0.0000000000000000000, 0.0000000000000000000 ) ) ;
#328 = EDGE_LOOP ( 'NONE', ( #79, #105 ) ) ;
#329 = PERSON_AND_ORGANIZATION_ROLE ( 'creator' ) ;
#330 = DATE_AND_TIME ( #65, #123 ) ;
#331 = CARTESIAN_POINT ( 'NONE',  ( 0.0000000000000000000, 0.0000000000000000000, 7.842050807568876200 ) ) ;
#332 = CIRCLE ( 'NONE', #279, 9.012603057622234500 ) ;
#333 = VERTEX_POINT ( 'NONE', #353 ) ;
#334 = AXIS2_PLACEMENT_3D ( 'NONE', #51, #114, #327 ) ;
#335 = CC_DESIGN_PERSON_AND_ORGANIZATION_ASSIGNMENT ( #59, #361, ( #343 ) ) ;
#336 = APPROVAL_DATE_TIME ( #40, #89 ) ;
#337 = CARTESIAN_POINT ( 'NONE',  ( 0.0000000000000000000, 9.012603057622234500, 34.00000000000000000 ) ) ;
#338 = UNCERTAINTY_MEASURE_WITH_UNIT (LENGTH_MEASURE( 1.000000000000000100E-005 ), #118, 'distance_accuracy_value', 'NONE');
#339 = EDGE_CURVE ( 'NONE', #138, #202, #177, .T. ) ;
#340 = DIRECTION ( 'NONE',  ( -0.0000000000000000000, -0.0000000000000000000, 1.000000000000000000 ) ) ;
#341 = PRODUCT_DEFINITION ( 'UNKNOWN', '', #251, #252 ) ;
#342 = CONICAL_SURFACE ( 'NONE', #71, 10.26217568973925200, 0.5235987755982940400 ) ;
#343 = PRODUCT ( 'TAP COLLET ER 25G  6.0  X 4.9', 'TAP COLLET ER 25G  6.0  X 4.9', '', ( #145 ) ) ;
#344 = DIRECTION ( 'NONE',  ( 0.0000000000000000000, 0.0000000000000000000, -1.000000000000000000 ) ) ;
#345 = CALENDAR_DATE ( 2019, 9, 4 ) ;
#346 = CC_DESIGN_APPROVAL ( #356, ( #341 ) ) ;
#347 = CARTESIAN_POINT ( 'NONE',  ( 0.0000000000000000000, 13.03657776635556700, 7.842050807568883300 ) ) ;
#348 = PERSON ( 'UNSPECIFIED', 'UNSPECIFIED', 'UNSPECIFIED', ('UNSPECIFIED'), ('UNSPECIFIED'), ('UNSPECIFIED') ) ;
#349 = DIRECTION ( 'NONE',  ( 1.000000000000000000, 0.0000000000000000000, 0.0000000000000000000 ) ) ;
#350 = EDGE_CURVE ( 'NONE', #296, #138, #127, .T. ) ;
#351 = LINE ( 'NONE', #262, #373 ) ;
#352 = DIRECTION ( 'NONE',  ( -0.0000000000000000000, -0.0000000000000000000, 1.000000000000000000 ) ) ;
#353 = CARTESIAN_POINT ( 'NONE',  ( 13.00000000000000000, 0.0000000000000000000, 4.742050807568884500 ) ) ;
#354 = DIRECTION ( 'NONE',  ( 0.1391731009600587800, 1.704378926181474000E-017, -0.9902680687415712500 ) ) ;
#355 = APPROVAL_DATE_TIME ( #170, #62 ) ;
#356 = APPROVAL ( #213, 'UNSPECIFIED' ) ;
#357 = CARTESIAN_POINT ( 'NONE',  ( 0.0000000000000000000, 0.0000000000000000000, 33.65566924038402900 ) ) ;
#358 = CARTESIAN_POINT ( 'NONE',  ( 9.012603057622234500, 0.0000000000000000000, 33.60000000000000100 ) ) ;
#359 = CC_DESIGN_DATE_AND_TIME_ASSIGNMENT ( #189, #269, ( #341 ) ) ;
#360 = CIRCLE ( 'NONE', #200, 13.03657776635556700 ) ;
#361 = PERSON_AND_ORGANIZATION_ROLE ( 'design_owner' ) ;
#362 = CARTESIAN_POINT ( 'NONE',  ( 0.0000000000000000000, 0.0000000000000000000, 7.842050807568890400 ) ) ;
#363 = CIRCLE ( 'NONE', #19, 9.012603057622234500 ) ;
#364 = SECURITY_CLASSIFICATION_LEVEL ( 'unclassified' ) ;
#365 = EDGE_CURVE ( 'NONE', #87, #49, #187, .T. ) ;
#366 = PERSON_AND_ORGANIZATION ( #348, #43 ) ;
#367 = CLOSED_SHELL ( 'NONE', ( #4, #180, #163, #34, #246, #77, #104, #238, #60, #98, #74, #12 ) ) ;
#368 = ORIENTED_EDGE ( 'NONE', *, *, #122, .F. ) ;
#369 = CONICAL_SURFACE ( 'NONE', #231, 13.03657776635556700, 0.1396263401595396500 ) ;
#370 = ORIENTED_EDGE ( 'NONE', *, *, #350, .T. ) ;
#371 = CC_DESIGN_PERSON_AND_ORGANIZATION_ASSIGNMENT ( #309, #55, ( #341 ) ) ;
#372 = CARTESIAN_POINT ( 'NONE',  ( 13.03657776635556700, 1.596520323340289600E-015, 7.842050807568876200 ) ) ;
#373 = VECTOR ( 'NONE', #175, 1000.000000000000000 ) ;
#374 = MANIFOLD_SOLID_BREP ( 'Revolve1', #367 ) ;
#375 = VERTEX_POINT ( 'NONE', #80 ) ;
#376 = CYLINDRICAL_SURFACE ( 'NONE', #232, 11.00000000000000000 ) ;
#377 = AXIS2_PLACEMENT_3D ( 'NONE', #136, #120, #20 ) ;
#378 = COORDINATED_UNIVERSAL_TIME_OFFSET ( 5, 30, .AHEAD. ) ;
#379 = ORIENTED_EDGE ( 'NONE', *, *, #311, .F. ) ;
#380 = VECTOR ( 'NONE', #263, 1000.000000000000000 ) ;
#381 = CARTESIAN_POINT ( 'NONE',  ( 0.0000000000000000000, 0.0000000000000000000, 34.00000000000000000 ) ) ;
#382 = DIRECTION ( 'NONE',  ( -0.0000000000000000000, -0.0000000000000000000, 1.000000000000000000 ) ) ;
#383 = SECURITY_CLASSIFICATION ( '', '', #364 ) ;
#384 = DIRECTION ( 'NONE',  ( 1.224646799147353200E-016, 1.000000000000000000, 0.0000000000000000000 ) ) ;
#385 = CARTESIAN_POINT ( 'NONE',  ( 0.0000000000000000000, 0.0000000000000000000, 0.0000000000000000000 ) ) ;
#386 = CARTESIAN_POINT ( 'NONE',  ( 11.00000000000000000, 0.0000000000000000000, 7.842050807568890400 ) ) ;
#387 = DIRECTION ( 'NONE',  ( -0.0000000000000000000, -0.0000000000000000000, 1.000000000000000000 ) ) ;
ENDSEC;
END-ISO-10303-21;
