ISO-10303-21;
HEADER;
FILE_DESCRIPTION (( 'STEP AP203' ),
    '1' );
FILE_NAME ('TAP COLLET ER 25G  12.5  X 10.0.STEP',
    '2019-04-09T10:18:59',
    ( '' ),
    ( '' ),
    'SwSTEP 2.0',
    'SolidWorks 2014',
    '' );
FILE_SCHEMA (( 'CONFIG_CONTROL_DESIGN' ));
ENDSEC;

DATA;
#1 = APPLICATION_CONTEXT ( 'configuration controlled 3d designs of mechanical parts and assemblies' ) ;
#2 = ORIENTED_EDGE ( 'NONE', *, *, #342, .T. ) ;
#3 = APPROVAL_ROLE ( '' ) ;
#4 = APPROVAL_PERSON_ORGANIZATION ( #118, #94, #3 ) ;
#5 = DIRECTION ( 'NONE',  ( -0.0000000000000000000, -0.0000000000000000000, 1.000000000000000000 ) ) ;
#6 = AXIS2_PLACEMENT_3D ( 'NONE', #173, #120, #346 ) ;
#7 = CARTESIAN_POINT ( 'NONE',  ( -13.03657776635556700, 0.0000000000000000000, 7.842050807568876200 ) ) ;
#8 = DIRECTION ( 'NONE',  ( -0.0000000000000000000, -0.0000000000000000000, 1.000000000000000000 ) ) ;
#9 = EDGE_CURVE ( 'NONE', #11, #171, #194, .T. ) ;
#10 = EDGE_LOOP ( 'NONE', ( #174, #87 ) ) ;
#11 = VERTEX_POINT ( 'NONE', #355 ) ;
#12 = DIRECTION ( 'NONE',  ( -0.0000000000000000000, -0.0000000000000000000, 1.000000000000000000 ) ) ;
#13 = AXIS2_PLACEMENT_3D ( 'NONE', #382, #353, #101 ) ;
#14 = CARTESIAN_POINT ( 'NONE',  ( 10.26217568973925200, 0.0000000000000000000, 0.0000000000000000000 ) ) ;
#15 = AXIS2_PLACEMENT_3D ( 'NONE', #238, #74, #265 ) ;
#16 = FACE_OUTER_BOUND ( 'NONE', #139, .T. ) ;
#17 = EDGE_LOOP ( 'NONE', ( #167, #112, #227, #273 ) ) ;
#18 = DATE_AND_TIME ( #243, #168 ) ;
#19 = FACE_OUTER_BOUND ( 'NONE', #125, .T. ) ;
#20 = EDGE_CURVE ( 'NONE', #374, #350, #329, .T. ) ;
#21 = CARTESIAN_POINT ( 'NONE',  ( 9.012603057622234500, 0.0000000000000000000, 33.60000000000000100 ) ) ;
#22 = EDGE_LOOP ( 'NONE', ( #147, #159 ) ) ;
#23 = AXIS2_PLACEMENT_3D ( 'NONE', #37, #76, #345 ) ;
#24 = PLANE ( 'NONE',  #166 ) ;
#25 = CC_DESIGN_DATE_AND_TIME_ASSIGNMENT ( #33, #363, ( #335 ) ) ;
#26 = DIRECTION ( 'NONE',  ( -0.0000000000000000000, -0.0000000000000000000, 1.000000000000000000 ) ) ;
#27 = VERTEX_POINT ( 'NONE', #83 ) ;
#28 = AXIS2_PLACEMENT_3D ( 'NONE', #129, #327, #156 ) ;
#29 = DIRECTION ( 'NONE',  ( -0.0000000000000000000, -0.0000000000000000000, 1.000000000000000000 ) ) ;
#30 = EDGE_CURVE ( 'NONE', #27, #248, #348, .T. ) ;
#31 = AXIS2_PLACEMENT_3D ( 'NONE', #98, #303, #137 ) ;
#32 = ORIENTED_EDGE ( 'NONE', *, *, #169, .T. ) ;
#33 = DATE_AND_TIME ( #141, #46 ) ;
#34 = CALENDAR_DATE ( 2019, 9, 4 ) ;
#35 = EDGE_CURVE ( 'NONE', #171, #11, #302, .T. ) ;
#36 = ADVANCED_FACE ( 'NONE', ( #16 ), #249, .T. ) ;
#37 = CARTESIAN_POINT ( 'NONE',  ( 0.0000000000000000000, 0.0000000000000000000, 4.742050807568884500 ) ) ;
#38 =( NAMED_UNIT ( * ) SI_UNIT ( $, .STERADIAN. ) SOLID_ANGLE_UNIT ( ) );
#39 = CIRCLE ( 'NONE', #80, 0.3999999999999975800 ) ;
#40 = VERTEX_POINT ( 'NONE', #352 ) ;
#41 = AXIS2_PLACEMENT_3D ( 'NONE', #106, #296, #133 ) ;
#42 = ORIENTED_EDGE ( 'NONE', *, *, #144, .F. ) ;
#43 = APPROVAL_STATUS ( 'not_yet_approved' ) ;
#44 = CARTESIAN_POINT ( 'NONE',  ( -11.00000000000000000, 1.347111479062088400E-015, 4.742050807568884500 ) ) ;
#45 = DIRECTION ( 'NONE',  ( 0.0000000000000000000, 0.0000000000000000000, -1.000000000000000000 ) ) ;
#46 = LOCAL_TIME ( 15, 48, 59.00000000000000000, #207 ) ;
#47 = ORGANIZATION ( 'UNSPECIFIED', 'UNSPECIFIED', '' ) ;
#48 = DIRECTION ( 'NONE',  ( -0.1391731009600587800, 0.0000000000000000000, -0.9902680687415712500 ) ) ;
#49 = CARTESIAN_POINT ( 'NONE',  ( 0.0000000000000000000, 0.0000000000000000000, 0.0000000000000000000 ) ) ;
#50 = AXIS2_PLACEMENT_3D ( 'NONE', #270, #127, #182 ) ;
#51 = DIRECTION ( 'NONE',  ( -0.0000000000000000000, -0.0000000000000000000, 1.000000000000000000 ) ) ;
#52 = LINE ( 'NONE', #328, #115 ) ;
#53 = ORIENTED_EDGE ( 'NONE', *, *, #377, .T. ) ;
#54 = FACE_OUTER_BOUND ( 'NONE', #10, .T. ) ;
#55 = AXIS2_PLACEMENT_3D ( 'NONE', #324, #295, #178 ) ;
#56 = EDGE_CURVE ( 'NONE', #208, #283, #277, .T. ) ;
#57 = CC_DESIGN_PERSON_AND_ORGANIZATION_ASSIGNMENT ( #292, #300, ( #326 ) ) ;
#58 = DIRECTION ( 'NONE',  ( 0.0000000000000000000, 0.0000000000000000000, -1.000000000000000000 ) ) ;
#59 = EDGE_LOOP ( 'NONE', ( #340, #269, #195, #176 ) ) ;
#60 = CC_DESIGN_PERSON_AND_ORGANIZATION_ASSIGNMENT ( #219, #78, ( #179 ) ) ;
#61 = AXIS2_PLACEMENT_3D ( 'NONE', #63, #93, #288 ) ;
#62 = DIRECTION ( 'NONE',  ( 0.0000000000000000000, -0.0000000000000000000, 1.000000000000000000 ) ) ;
#63 = CARTESIAN_POINT ( 'NONE',  ( 0.0000000000000000000, 0.0000000000000000000, 101.8074564848000400 ) ) ;
#64 = FACE_OUTER_BOUND ( 'NONE', #383, .T. ) ;
#65 = AXIS2_PLACEMENT_3D ( 'NONE', #143, #338, #165 ) ;
#66 = LINE ( 'NONE', #343, #380 ) ;
#67 = CARTESIAN_POINT ( 'NONE',  ( 0.0000000000000000000, 0.0000000000000000000, 7.842050807568890400 ) ) ;
#68 = DIRECTION ( 'NONE',  ( -0.0000000000000000000, -0.0000000000000000000, 1.000000000000000000 ) ) ;
#69 = LOCAL_TIME ( 15, 48, 59.00000000000000000, #287 ) ;
#70 = ADVANCED_BREP_SHAPE_REPRESENTATION ( 'TAP COLLET ER 25G  12.5  X 10.0', ( #99, #272 ), #285 ) ;
#71 = ORIENTED_EDGE ( 'NONE', *, *, #144, .T. ) ;
#72 = PRODUCT ( 'TAP COLLET ER 25G  12.5  X 10.0', 'TAP COLLET ER 25G  12.5  X 10.0', '', ( #362 ) ) ;
#73 = ORIENTED_EDGE ( 'NONE', *, *, #9, .T. ) ;
#74 = DIRECTION ( 'NONE',  ( -0.0000000000000000000, -0.0000000000000000000, 1.000000000000000000 ) ) ;
#75 = CARTESIAN_POINT ( 'NONE',  ( -13.03657776635556700, 0.0000000000000000000, 7.842050807568876200 ) ) ;
#76 = DIRECTION ( 'NONE',  ( -0.0000000000000000000, -0.0000000000000000000, 1.000000000000000000 ) ) ;
#77 = APPLICATION_CONTEXT ( 'configuration controlled 3d designs of mechanical parts and assemblies' ) ;
#78 = PERSON_AND_ORGANIZATION_ROLE ( 'creator' ) ;
#79 = ORIENTED_EDGE ( 'NONE', *, *, #184, .T. ) ;
#80 = AXIS2_PLACEMENT_3D ( 'NONE', #21, #228, #58 ) ;
#81 = PLANE ( 'NONE',  #371 ) ;
#82 = AXIS2_PLACEMENT_3D ( 'NONE', #188, #8, #220 ) ;
#83 = CARTESIAN_POINT ( 'NONE',  ( 13.03657776635556700, 1.596520323340289600E-015, 7.842050807568876200 ) ) ;
#84 = CIRCLE ( 'NONE', #41, 10.26217568973925200 ) ;
#85 = CARTESIAN_POINT ( 'NONE',  ( -9.408710285118862900, 0.0000000000000000000, 33.65566924038402900 ) ) ;
#86 = DATE_AND_TIME ( #34, #69 ) ;
#87 = ORIENTED_EDGE ( 'NONE', *, *, #30, .F. ) ;
#88 = ADVANCED_FACE ( 'NONE', ( #290 ), #289, .T. ) ;
#89 = CARTESIAN_POINT ( 'NONE',  ( 0.0000000000000000000, 9.012603057622234500, 34.00000000000000000 ) ) ;
#90 = DIRECTION ( 'NONE',  ( -0.0000000000000000000, -0.0000000000000000000, 1.000000000000000000 ) ) ;
#91 = DIRECTION ( 'NONE',  ( -1.000000000000000000, 0.0000000000000000000, -0.0000000000000000000 ) ) ;
#92 = ORIENTED_EDGE ( 'NONE', *, *, #9, .F. ) ;
#93 = DIRECTION ( 'NONE',  ( -0.0000000000000000000, -0.0000000000000000000, 1.000000000000000000 ) ) ;
#94 = APPROVAL ( #183, 'UNSPECIFIED' ) ;
#95 = ORIENTED_EDGE ( 'NONE', *, *, #305, .F. ) ;
#96 = PERSON ( 'UNSPECIFIED', 'UNSPECIFIED', 'UNSPECIFIED', ('UNSPECIFIED'), ('UNSPECIFIED'), ('UNSPECIFIED') ) ;
#97 = COORDINATED_UNIVERSAL_TIME_OFFSET ( 5, 30, .AHEAD. ) ;
#98 = CARTESIAN_POINT ( 'NONE',  ( 0.0000000000000000000, 0.0000000000000000000, 33.65566924038402900 ) ) ;
#99 = MANIFOLD_SOLID_BREP ( 'Revolve1', #152 ) ;
#100 = FACE_OUTER_BOUND ( 'NONE', #321, .T. ) ;
#101 = DIRECTION ( 'NONE',  ( 1.000000000000000000, 0.0000000000000000000, 0.0000000000000000000 ) ) ;
#102 = AXIS2_PLACEMENT_3D ( 'NONE', #199, #193, #225 ) ;
#103 = ADVANCED_FACE ( 'NONE', ( #322 ), #119, .T. ) ;
#104 = VERTEX_POINT ( 'NONE', #318 ) ;
#105 = TOROIDAL_SURFACE ( 'NONE', #235, 9.012603057622234500, 0.4000000000000009700 ) ;
#106 = CARTESIAN_POINT ( 'NONE',  ( 0.0000000000000000000, 0.0000000000000000000, 0.0000000000000000000 ) ) ;
#107 = ORIENTED_EDGE ( 'NONE', *, *, #169, .F. ) ;
#108 = CALENDAR_DATE ( 2019, 9, 4 ) ;
#109 = APPROVAL_STATUS ( 'not_yet_approved' ) ;
#110 = ORIENTED_EDGE ( 'NONE', *, *, #263, .T. ) ;
#111 = CARTESIAN_POINT ( 'NONE',  ( 11.00000000000000000, 0.0000000000000000000, 4.742050807568884500 ) ) ;
#112 = ORIENTED_EDGE ( 'NONE', *, *, #379, .T. ) ;
#113 = DESIGN_CONTEXT ( 'detailed design', #1, 'design' ) ;
#114 = AXIS2_PLACEMENT_3D ( 'NONE', #236, #68, #264 ) ;
#115 = VECTOR ( 'NONE', #210, 1000.000000000000000 ) ;
#116 = DIRECTION ( 'NONE',  ( 1.224646799147353200E-016, 1.000000000000000000, 0.0000000000000000000 ) ) ;
#117 = CARTESIAN_POINT ( 'NONE',  ( 0.0000000000000000000, 0.0000000000000000000, 33.60000000000000100 ) ) ;
#118 = PERSON_AND_ORGANIZATION ( #96, #47 ) ;
#119 = CYLINDRICAL_SURFACE ( 'NONE', #61, 11.00000000000000000 ) ;
#120 = DIRECTION ( 'NONE',  ( -0.0000000000000000000, -0.0000000000000000000, 1.000000000000000000 ) ) ;
#121 = LINE ( 'NONE', #250, #190 ) ;
#122 = CIRCLE ( 'NONE', #279, 9.408710285118862900 ) ;
#123 = CIRCLE ( 'NONE', #224, 0.4000000000000010200 ) ;
#124 = ORIENTED_EDGE ( 'NONE', *, *, #377, .F. ) ;
#125 = EDGE_LOOP ( 'NONE', ( #73, #258 ) ) ;
#126 = APPROVAL_PERSON_ORGANIZATION ( #359, #186, #301 ) ;
#127 = DIRECTION ( 'NONE',  ( 0.0000000000000000000, -0.0000000000000000000, 1.000000000000000000 ) ) ;
#128 = ADVANCED_FACE ( 'NONE', ( #293 ), #142, .T. ) ;
#129 = CARTESIAN_POINT ( 'NONE',  ( 0.0000000000000000000, 0.0000000000000000000, 4.742050807568884500 ) ) ;
#130 = CC_DESIGN_PERSON_AND_ORGANIZATION_ASSIGNMENT ( #367, #135, ( #326 ) ) ;
#131 = CIRCLE ( 'NONE', #136, 9.012603057622234500 ) ;
#132 = VERTEX_POINT ( 'NONE', #175 ) ;
#133 = DIRECTION ( 'NONE',  ( 1.000000000000000000, 0.0000000000000000000, 0.0000000000000000000 ) ) ;
#134 = DIRECTION ( 'NONE',  ( 0.0000000000000000000, 0.0000000000000000000, 1.000000000000000000 ) ) ;
#135 = PERSON_AND_ORGANIZATION_ROLE ( 'design_supplier' ) ;
#136 = AXIS2_PLACEMENT_3D ( 'NONE', #201, #26, #387 ) ;
#137 = DIRECTION ( 'NONE',  ( 1.000000000000000000, 0.0000000000000000000, 0.0000000000000000000 ) ) ;
#138 = UNCERTAINTY_MEASURE_WITH_UNIT (LENGTH_MEASURE( 1.000000000000000100E-005 ), #315, 'distance_accuracy_value', 'NONE');
#139 = EDGE_LOOP ( 'NONE', ( #376, #140, #92, #95 ) ) ;
#140 = ORIENTED_EDGE ( 'NONE', *, *, #275, .T. ) ;
#141 = CALENDAR_DATE ( 2019, 9, 4 ) ;
#142 = CYLINDRICAL_SURFACE ( 'NONE', #6, 11.00000000000000000 ) ;
#143 = CARTESIAN_POINT ( 'NONE',  ( 0.0000000000000000000, 0.0000000000000000000, 4.742050807568884500 ) ) ;
#144 = EDGE_CURVE ( 'NONE', #308, #104, #122, .T. ) ;
#145 = VECTOR ( 'NONE', #372, 1000.000000000000000 ) ;
#146 = LOCAL_TIME ( 15, 48, 59.00000000000000000, #162 ) ;
#147 = ORIENTED_EDGE ( 'NONE', *, *, #229, .F. ) ;
#148 = ADVANCED_FACE ( 'NONE', ( #100 ), #105, .T. ) ;
#149 = FACE_OUTER_BOUND ( 'NONE', #232, .T. ) ;
#150 = DIRECTION ( 'NONE',  ( -0.4999999999999957800, 6.123233995736714300E-017, 0.8660254037844410400 ) ) ;
#151 = DIRECTION ( 'NONE',  ( -0.0000000000000000000, -0.0000000000000000000, 1.000000000000000000 ) ) ;
#152 = CLOSED_SHELL ( 'NONE', ( #148, #358, #128, #36, #154, #360, #267, #103, #281, #299, #88, #385 ) ) ;
#153 = ORIENTED_EDGE ( 'NONE', *, *, #35, .F. ) ;
#154 = ADVANCED_FACE ( 'NONE', ( #262 ), #240, .F. ) ;
#155 = AXIS2_PLACEMENT_3D ( 'NONE', #89, #257, #91 ) ;
#156 = DIRECTION ( 'NONE',  ( 1.000000000000000000, 0.0000000000000000000, 0.0000000000000000000 ) ) ;
#157 = APPLICATION_PROTOCOL_DEFINITION ( 'international standard', 'config_control_design', 1994, #77 ) ;
#158 = PERSON_AND_ORGANIZATION_ROLE ( 'classification_officer' ) ;
#159 = ORIENTED_EDGE ( 'NONE', *, *, #245, .F. ) ;
#160 = CALENDAR_DATE ( 2019, 9, 4 ) ;
#161 = DIRECTION ( 'NONE',  ( -0.0000000000000000000, -0.0000000000000000000, 1.000000000000000000 ) ) ;
#162 = COORDINATED_UNIVERSAL_TIME_OFFSET ( 5, 30, .AHEAD. ) ;
#163 = ORIENTED_EDGE ( 'NONE', *, *, #56, .F. ) ;
#164 = CC_DESIGN_APPROVAL ( #186, ( #326 ) ) ;
#165 = DIRECTION ( 'NONE',  ( 1.000000000000000000, 0.0000000000000000000, 0.0000000000000000000 ) ) ;
#166 = AXIS2_PLACEMENT_3D ( 'NONE', #230, #62, #259 ) ;
#167 = ORIENTED_EDGE ( 'NONE', *, *, #323, .T. ) ;
#169 = EDGE_CURVE ( 'NONE', #200, #374, #196, .T. ) ;
#168 = LOCAL_TIME ( 15, 48, 59.00000000000000000, #97 ) ;
#170 = PLANE ( 'NONE',  #155 ) ;
#171 = VERTEX_POINT ( 'NONE', #214 ) ;
#172 = CARTESIAN_POINT ( 'NONE',  ( -9.012603057622234500, 1.127980121063915600E-015, 34.00000000000000000 ) ) ;
#173 = CARTESIAN_POINT ( 'NONE',  ( 0.0000000000000000000, 0.0000000000000000000, 101.8074564848000400 ) ) ;
#174 = ORIENTED_EDGE ( 'NONE', *, *, #184, .F. ) ;
#175 = CARTESIAN_POINT ( 'NONE',  ( -11.00000000000000000, 1.347111479062088400E-015, 7.842050807568890400 ) ) ;
#176 = ORIENTED_EDGE ( 'NONE', *, *, #263, .F. ) ;
#177 = AXIS2_PLACEMENT_3D ( 'NONE', #203, #29, #233 ) ;
#178 = DIRECTION ( 'NONE',  ( 1.000000000000000000, 0.0000000000000000000, 0.0000000000000000000 ) ) ;
#179 = PRODUCT_DEFINITION ( 'UNKNOWN', '', #326, #113 ) ;
#180 = EDGE_LOOP ( 'NONE', ( #291, #107 ) ) ;
#181 = PERSON_AND_ORGANIZATION_ROLE ( 'design_owner' ) ;
#182 = DIRECTION ( 'NONE',  ( 1.000000000000000000, 0.0000000000000000000, 0.0000000000000000000 ) ) ;
#183 = APPROVAL_STATUS ( 'not_yet_approved' ) ;
#184 = EDGE_CURVE ( 'NONE', #248, #27, #306, .T. ) ;
#185 = CARTESIAN_POINT ( 'NONE',  ( 0.0000000000000000000, 0.0000000000000000000, 7.842050807568890400 ) ) ;
#186 = APPROVAL ( #109, 'UNSPECIFIED' ) ;
#187 = APPROVAL_DATE_TIME ( #18, #94 ) ;
#188 = CARTESIAN_POINT ( 'NONE',  ( 0.0000000000000000000, 0.0000000000000000000, 7.842050807568876200 ) ) ;
#189 = CARTESIAN_POINT ( 'NONE',  ( 0.0000000000000000000, 0.0000000000000000000, 0.0000000000000000000 ) ) ;
#190 = VECTOR ( 'NONE', #51, 1000.000000000000000 ) ;
#191 = FACE_OUTER_BOUND ( 'NONE', #206, .T. ) ;
#192 = ORIENTED_EDGE ( 'NONE', *, *, #357, .F. ) ;
#193 = DIRECTION ( 'NONE',  ( 0.0000000000000000000, 0.0000000000000000000, -1.000000000000000000 ) ) ;
#194 = CIRCLE ( 'NONE', #65, 13.00000000000000000 ) ;
#195 = ORIENTED_EDGE ( 'NONE', *, *, #30, .T. ) ;
#196 = CIRCLE ( 'NONE', #23, 11.00000000000000000 ) ;
#197 = CARTESIAN_POINT ( 'NONE',  ( 11.00000000000000000, 0.0000000000000000000, 7.842050807568890400 ) ) ;
#198 = DATE_AND_TIME ( #160, #146 ) ;
#199 = CARTESIAN_POINT ( 'NONE',  ( 0.0000000000000000000, 0.0000000000000000000, 7.842050807568876200 ) ) ;
#200 = VERTEX_POINT ( 'NONE', #44 ) ;
#201 = CARTESIAN_POINT ( 'NONE',  ( 0.0000000000000000000, 0.0000000000000000000, 34.00000000000000000 ) ) ;
#202 = FACE_BOUND ( 'NONE', #242, .T. ) ;
#203 = CARTESIAN_POINT ( 'NONE',  ( 0.0000000000000000000, 0.0000000000000000000, 4.742050807568884500 ) ) ;
#204 = EDGE_CURVE ( 'NONE', #283, #208, #131, .T. ) ;
#205 = DIRECTION ( 'NONE',  ( 1.000000000000000000, 0.0000000000000000000, 0.0000000000000000000 ) ) ;
#206 = EDGE_LOOP ( 'NONE', ( #215, #234 ) ) ;
#207 = COORDINATED_UNIVERSAL_TIME_OFFSET ( 5, 30, .AHEAD. ) ;
#208 = VERTEX_POINT ( 'NONE', #209 ) ;
#209 = CARTESIAN_POINT ( 'NONE',  ( 9.012603057622234500, 0.0000000000000000000, 34.00000000000000000 ) ) ;
#210 = DIRECTION ( 'NONE',  ( 0.1391731009600587800, 1.704378926181474000E-017, -0.9902680687415712500 ) ) ;
#211 = CIRCLE ( 'NONE', #274, 11.00000000000000000 ) ;
#212 =( NAMED_UNIT ( * ) PLANE_ANGLE_UNIT ( ) SI_UNIT ( $, .RADIAN. ) );
#213 = APPLICATION_PROTOCOL_DEFINITION ( 'international standard', 'config_control_design', 1994, #1 ) ;
#214 = CARTESIAN_POINT ( 'NONE',  ( -13.00000000000000000, 1.592040838891559100E-015, 4.742050807568884500 ) ) ;
#215 = ORIENTED_EDGE ( 'NONE', *, *, #56, .T. ) ;
#216 = DIRECTION ( 'NONE',  ( 1.000000000000000000, 0.0000000000000000000, 0.0000000000000000000 ) ) ;
#217 = ORIENTED_EDGE ( 'NONE', *, *, #365, .T. ) ;
#218 = LOCAL_TIME ( 15, 48, 59.00000000000000000, #336 ) ;
#219 = PERSON_AND_ORGANIZATION ( #96, #47 ) ;
#220 = DIRECTION ( 'NONE',  ( 1.000000000000000000, 0.0000000000000000000, 0.0000000000000000000 ) ) ;
#221 = ORIENTED_EDGE ( 'NONE', *, *, #245, .T. ) ;
#222 = CIRCLE ( 'NONE', #31, 9.408710285118862900 ) ;
#223 = DIRECTION ( 'NONE',  ( 1.000000000000000000, 0.0000000000000000000, 0.0000000000000000000 ) ) ;
#224 = AXIS2_PLACEMENT_3D ( 'NONE', #280, #116, #314 ) ;
#225 = DIRECTION ( 'NONE',  ( -1.000000000000000000, 0.0000000000000000000, 0.0000000000000000000 ) ) ;
#226 = DIRECTION ( 'NONE',  ( 1.000000000000000000, 0.0000000000000000000, 0.0000000000000000000 ) ) ;
#227 = ORIENTED_EDGE ( 'NONE', *, *, #365, .F. ) ;
#228 = DIRECTION ( 'NONE',  ( 0.0000000000000000000, -1.000000000000000000, 0.0000000000000000000 ) ) ;
#229 = EDGE_CURVE ( 'NONE', #304, #40, #84, .T. ) ;
#230 = CARTESIAN_POINT ( 'NONE',  ( 0.0000000000000000000, 13.03657776635556700, 7.842050807568883300 ) ) ;
#231 = LINE ( 'NONE', #14, #266 ) ;
#232 = EDGE_LOOP ( 'NONE', ( #253, #221, #375, #153 ) ) ;
#233 = DIRECTION ( 'NONE',  ( 1.000000000000000000, 0.0000000000000000000, 0.0000000000000000000 ) ) ;
#234 = ORIENTED_EDGE ( 'NONE', *, *, #204, .T. ) ;
#235 = AXIS2_PLACEMENT_3D ( 'NONE', #117, #151, #205 ) ;
#236 = CARTESIAN_POINT ( 'NONE',  ( 0.0000000000000000000, 0.0000000000000000000, 34.00000000000000000 ) ) ;
#237 = ORIENTED_EDGE ( 'NONE', *, *, #255, .F. ) ;
#238 = CARTESIAN_POINT ( 'NONE',  ( 0.0000000000000000000, 0.0000000000000000000, 7.842050807568876200 ) ) ;
#239 = CC_DESIGN_DATE_AND_TIME_ASSIGNMENT ( #198, #271, ( #179 ) ) ;
#240 = PLANE ( 'NONE',  #50 ) ;
#241 = APPROVAL_ROLE ( '' ) ;
#242 = EDGE_LOOP ( 'NONE', ( #217, #278 ) ) ;
#243 = CALENDAR_DATE ( 2019, 9, 4 ) ;
#244 = SHAPE_DEFINITION_REPRESENTATION ( #320, #70 ) ;
#245 = EDGE_CURVE ( 'NONE', #40, #304, #369, .T. ) ;
#246 = DIRECTION ( 'NONE',  ( -1.000000000000000000, 0.0000000000000000000, 0.0000000000000000000 ) ) ;
#247 = AXIS2_PLACEMENT_3D ( 'NONE', #49, #161, #370 ) ;
#248 = VERTEX_POINT ( 'NONE', #75 ) ;
#249 = CONICAL_SURFACE ( 'NONE', #55, 10.26217568973925200, 0.5235987755982940400 ) ;
#250 = CARTESIAN_POINT ( 'NONE',  ( -11.00000000000000000, 1.347111479062088400E-015, 101.8074564848000400 ) ) ;
#251 = CARTESIAN_POINT ( 'NONE',  ( 10.26217568973925200, 0.0000000000000000000, 0.0000000000000000000 ) ) ;
#252 = APPROVAL_DATE_TIME ( #331, #186 ) ;
#253 = ORIENTED_EDGE ( 'NONE', *, *, #275, .F. ) ;
#254 = PERSON_AND_ORGANIZATION ( #96, #47 ) ;
#255 = EDGE_CURVE ( 'NONE', #104, #27, #52, .T. ) ;
#256 = CARTESIAN_POINT ( 'NONE',  ( 0.0000000000000000000, 0.0000000000000000000, 33.65566924038402900 ) ) ;
#257 = DIRECTION ( 'NONE',  ( 0.0000000000000000000, 0.0000000000000000000, -1.000000000000000000 ) ) ;
#258 = ORIENTED_EDGE ( 'NONE', *, *, #35, .T. ) ;
#259 = DIRECTION ( 'NONE',  ( 1.000000000000000000, 0.0000000000000000000, 0.0000000000000000000 ) ) ;
#260 = CIRCLE ( 'NONE', #313, 11.00000000000000000 ) ;
#261 = EDGE_LOOP ( 'NONE', ( #124, #71, #312, #354 ) ) ;
#262 = FACE_OUTER_BOUND ( 'NONE', #22, .T. ) ;
#263 = EDGE_CURVE ( 'NONE', #308, #248, #337, .T. ) ;
#264 = DIRECTION ( 'NONE',  ( 1.000000000000000000, 0.0000000000000000000, 0.0000000000000000000 ) ) ;
#265 = DIRECTION ( 'NONE',  ( 1.000000000000000000, 0.0000000000000000000, 0.0000000000000000000 ) ) ;
#266 = VECTOR ( 'NONE', #310, 1000.000000000000200 ) ;
#267 = ADVANCED_FACE ( 'NONE', ( #347, #19 ), #81, .F. ) ;
#268 = CONICAL_SURFACE ( 'NONE', #102, 13.03657776635556700, 0.1396263401595396500 ) ;
#269 = ORIENTED_EDGE ( 'NONE', *, *, #255, .T. ) ;
#270 = CARTESIAN_POINT ( 'NONE',  ( 0.0000000000000000000, 0.0000000000000000000, 0.0000000000000000000 ) ) ;
#271 = DATE_TIME_ROLE ( 'creation_date' ) ;
#272 = AXIS2_PLACEMENT_3D ( 'NONE', #298, #134, #330 ) ;
#273 = ORIENTED_EDGE ( 'NONE', *, *, #20, .F. ) ;
#274 = AXIS2_PLACEMENT_3D ( 'NONE', #185, #5, #216 ) ;
#275 = EDGE_CURVE ( 'NONE', #40, #171, #66, .T. ) ;
#276 = CARTESIAN_POINT ( 'NONE',  ( 0.0000000000000000000, 13.00000000000000000, 4.742050807568884500 ) ) ;
#277 = CIRCLE ( 'NONE', #114, 9.012603057622234500 ) ;
#278 = ORIENTED_EDGE ( 'NONE', *, *, #357, .T. ) ;
#279 = AXIS2_PLACEMENT_3D ( 'NONE', #256, #90, #282 ) ;
#280 = CARTESIAN_POINT ( 'NONE',  ( -9.012603057622234500, 1.103725548650271700E-015, 33.60000000000000100 ) ) ;
#281 = ADVANCED_FACE ( 'NONE', ( #54, #202 ), #24, .F. ) ;
#282 = DIRECTION ( 'NONE',  ( 1.000000000000000000, 0.0000000000000000000, 0.0000000000000000000 ) ) ;
#283 = VERTEX_POINT ( 'NONE', #172 ) ;
#284 = PERSON_AND_ORGANIZATION ( #96, #47 ) ;
#285 =( GEOMETRIC_REPRESENTATION_CONTEXT ( 3 ) GLOBAL_UNCERTAINTY_ASSIGNED_CONTEXT ( ( #138 ) ) GLOBAL_UNIT_ASSIGNED_CONTEXT ( ( #315, #212, #38 ) ) REPRESENTATION_CONTEXT ( 'NONE', 'WORKASPACE' ) );
#286 = CC_DESIGN_PERSON_AND_ORGANIZATION_ASSIGNMENT ( #284, #158, ( #335 ) ) ;
#287 = COORDINATED_UNIVERSAL_TIME_OFFSET ( 5, 30, .AHEAD. ) ;
#288 = DIRECTION ( 'NONE',  ( 1.000000000000000000, 0.0000000000000000000, 0.0000000000000000000 ) ) ;
#289 = TOROIDAL_SURFACE ( 'NONE', #13, 9.012603057622234500, 0.4000000000000009700 ) ;
#290 = FACE_OUTER_BOUND ( 'NONE', #261, .T. ) ;
#291 = ORIENTED_EDGE ( 'NONE', *, *, #323, .F. ) ;
#292 = PERSON_AND_ORGANIZATION ( #96, #47 ) ;
#293 = FACE_OUTER_BOUND ( 'NONE', #17, .T. ) ;
#294 = APPROVAL_PERSON_ORGANIZATION ( #254, #319, #241 ) ;
#295 = DIRECTION ( 'NONE',  ( -0.0000000000000000000, -0.0000000000000000000, 1.000000000000000000 ) ) ;
#296 = DIRECTION ( 'NONE',  ( -0.0000000000000000000, -0.0000000000000000000, 1.000000000000000000 ) ) ;
#297 = AXIS2_PLACEMENT_3D ( 'NONE', #189, #12, #223 ) ;
#298 = CARTESIAN_POINT ( 'NONE',  ( 0.0000000000000000000, 0.0000000000000000000, 0.0000000000000000000 ) ) ;
#299 = ADVANCED_FACE ( 'NONE', ( #64 ), #268, .T. ) ;
#300 = PERSON_AND_ORGANIZATION_ROLE ( 'creator' ) ;
#301 = APPROVAL_ROLE ( '' ) ;
#302 = CIRCLE ( 'NONE', #28, 13.00000000000000000 ) ;
#303 = DIRECTION ( 'NONE',  ( -0.0000000000000000000, -0.0000000000000000000, 1.000000000000000000 ) ) ;
#304 = VERTEX_POINT ( 'NONE', #251 ) ;
#305 = EDGE_CURVE ( 'NONE', #304, #11, #231, .T. ) ;
#306 = CIRCLE ( 'NONE', #82, 13.03657776635556700 ) ;
#307 = PRODUCT_RELATED_PRODUCT_CATEGORY ( 'detail', '', ( #72 ) ) ;
#308 = VERTEX_POINT ( 'NONE', #85 ) ;
#309 = CARTESIAN_POINT ( 'NONE',  ( 11.00000000000000000, 0.0000000000000000000, 101.8074564848000400 ) ) ;
#310 = DIRECTION ( 'NONE',  ( 0.4999999999999957800, 0.0000000000000000000, 0.8660254037844410400 ) ) ;
#311 = APPROVAL_DATE_TIME ( #86, #319 ) ;
#312 = ORIENTED_EDGE ( 'NONE', *, *, #384, .T. ) ;
#313 = AXIS2_PLACEMENT_3D ( 'NONE', #67, #334, #226 ) ;
#314 = DIRECTION ( 'NONE',  ( -1.000000000000000000, 1.224646799147353200E-016, 0.0000000000000000000 ) ) ;
#315 =( LENGTH_UNIT ( ) NAMED_UNIT ( * ) SI_UNIT ( .MILLI., .METRE. ) );
#316 = DIRECTION ( 'NONE',  ( -1.000000000000000000, 0.0000000000000000000, -0.0000000000000000000 ) ) ;
#317 = EDGE_LOOP ( 'NONE', ( #325, #32, #366, #192 ) ) ;
#318 = CARTESIAN_POINT ( 'NONE',  ( 9.408710285118862900, 1.374377508408924700E-015, 33.65566924038402900 ) ) ;
#319 = APPROVAL ( #43, 'UNSPECIFIED' ) ;
#320 = PRODUCT_DEFINITION_SHAPE ( 'NONE', 'NONE',  #179 ) ;
#321 = EDGE_LOOP ( 'NONE', ( #2, #53, #163, #332 ) ) ;
#322 = FACE_OUTER_BOUND ( 'NONE', #317, .T. ) ;
#323 = EDGE_CURVE ( 'NONE', #374, #200, #378, .T. ) ;
#324 = CARTESIAN_POINT ( 'NONE',  ( 0.0000000000000000000, 0.0000000000000000000, 0.0000000000000000000 ) ) ;
#325 = ORIENTED_EDGE ( 'NONE', *, *, #379, .F. ) ;
#326 = PRODUCT_DEFINITION_FORMATION_WITH_SPECIFIED_SOURCE ( 'ANY', '', #72, .NOT_KNOWN. ) ;
#327 = DIRECTION ( 'NONE',  ( -0.0000000000000000000, -0.0000000000000000000, 1.000000000000000000 ) ) ;
#328 = CARTESIAN_POINT ( 'NONE',  ( 13.03657776635556700, 1.596520323340289600E-015, 7.842050807568876200 ) ) ;
#329 = LINE ( 'NONE', #309, #145 ) ;
#330 = DIRECTION ( 'NONE',  ( 1.000000000000000000, 0.0000000000000000000, 0.0000000000000000000 ) ) ;
#331 = DATE_AND_TIME ( #108, #218 ) ;
#332 = ORIENTED_EDGE ( 'NONE', *, *, #384, .F. ) ;
#333 = SECURITY_CLASSIFICATION_LEVEL ( 'unclassified' ) ;
#334 = DIRECTION ( 'NONE',  ( -0.0000000000000000000, -0.0000000000000000000, 1.000000000000000000 ) ) ;
#335 = SECURITY_CLASSIFICATION ( '', '', #333 ) ;
#336 = COORDINATED_UNIVERSAL_TIME_OFFSET ( 5, 30, .AHEAD. ) ;
#337 = LINE ( 'NONE', #7, #356 ) ;
#338 = DIRECTION ( 'NONE',  ( -0.0000000000000000000, -0.0000000000000000000, 1.000000000000000000 ) ) ;
#339 = CONICAL_SURFACE ( 'NONE', #361, 13.03657776635556700, 0.1396263401595396500 ) ;
#340 = ORIENTED_EDGE ( 'NONE', *, *, #342, .F. ) ;
#341 = CC_DESIGN_PERSON_AND_ORGANIZATION_ASSIGNMENT ( #351, #181, ( #72 ) ) ;
#342 = EDGE_CURVE ( 'NONE', #104, #308, #222, .T. ) ;
#343 = CARTESIAN_POINT ( 'NONE',  ( -10.26217568973925200, 1.256754061072695800E-015, 0.0000000000000000000 ) ) ;
#344 = CC_DESIGN_APPROVAL ( #94, ( #335 ) ) ;
#345 = DIRECTION ( 'NONE',  ( 1.000000000000000000, 0.0000000000000000000, 0.0000000000000000000 ) ) ;
#346 = DIRECTION ( 'NONE',  ( 1.000000000000000000, 0.0000000000000000000, 0.0000000000000000000 ) ) ;
#347 = FACE_BOUND ( 'NONE', #180, .T. ) ;
#348 = CIRCLE ( 'NONE', #15, 13.03657776635556700 ) ;
#349 = FACE_OUTER_BOUND ( 'NONE', #59, .T. ) ;
#350 = VERTEX_POINT ( 'NONE', #197 ) ;
#351 = PERSON_AND_ORGANIZATION ( #96, #47 ) ;
#352 = CARTESIAN_POINT ( 'NONE',  ( -10.26217568973925200, 1.424397449982127500E-015, 0.0000000000000000000 ) ) ;
#353 = DIRECTION ( 'NONE',  ( -0.0000000000000000000, -0.0000000000000000000, 1.000000000000000000 ) ) ;
#354 = ORIENTED_EDGE ( 'NONE', *, *, #204, .F. ) ;
#355 = CARTESIAN_POINT ( 'NONE',  ( 13.00000000000000000, 0.0000000000000000000, 4.742050807568884500 ) ) ;
#356 = VECTOR ( 'NONE', #48, 1000.000000000000000 ) ;
#357 = EDGE_CURVE ( 'NONE', #132, #350, #211, .T. ) ;
#358 = ADVANCED_FACE ( 'NONE', ( #349 ), #339, .T. ) ;
#359 = PERSON_AND_ORGANIZATION ( #96, #47 ) ;
#360 = ADVANCED_FACE ( 'NONE', ( #149 ), #368, .T. ) ;
#361 = AXIS2_PLACEMENT_3D ( 'NONE', #364, #45, #246 ) ;
#362 = MECHANICAL_CONTEXT ( 'NONE', #77, 'mechanical' ) ;
#363 = DATE_TIME_ROLE ( 'classification_date' ) ;
#364 = CARTESIAN_POINT ( 'NONE',  ( 0.0000000000000000000, 0.0000000000000000000, 7.842050807568876200 ) ) ;
#365 = EDGE_CURVE ( 'NONE', #350, #132, #260, .T. ) ;
#366 = ORIENTED_EDGE ( 'NONE', *, *, #20, .T. ) ;
#367 = PERSON_AND_ORGANIZATION ( #96, #47 ) ;
#368 = CONICAL_SURFACE ( 'NONE', #297, 10.26217568973925200, 0.5235987755982940400 ) ;
#369 = CIRCLE ( 'NONE', #247, 10.26217568973925200 ) ;
#370 = DIRECTION ( 'NONE',  ( 1.000000000000000000, 0.0000000000000000000, 0.0000000000000000000 ) ) ;
#371 = AXIS2_PLACEMENT_3D ( 'NONE', #276, #381, #316 ) ;
#372 = DIRECTION ( 'NONE',  ( -0.0000000000000000000, -0.0000000000000000000, 1.000000000000000000 ) ) ;
#373 = CC_DESIGN_SECURITY_CLASSIFICATION ( #335, ( #326 ) ) ;
#374 = VERTEX_POINT ( 'NONE', #111 ) ;
#375 = ORIENTED_EDGE ( 'NONE', *, *, #305, .T. ) ;
#376 = ORIENTED_EDGE ( 'NONE', *, *, #229, .T. ) ;
#377 = EDGE_CURVE ( 'NONE', #308, #283, #123, .T. ) ;
#378 = CIRCLE ( 'NONE', #177, 11.00000000000000000 ) ;
#379 = EDGE_CURVE ( 'NONE', #200, #132, #121, .T. ) ;
#380 = VECTOR ( 'NONE', #150, 1000.000000000000200 ) ;
#381 = DIRECTION ( 'NONE',  ( 0.0000000000000000000, 0.0000000000000000000, -1.000000000000000000 ) ) ;
#382 = CARTESIAN_POINT ( 'NONE',  ( 0.0000000000000000000, 0.0000000000000000000, 33.60000000000000100 ) ) ;
#383 = EDGE_LOOP ( 'NONE', ( #237, #42, #110, #79 ) ) ;
#384 = EDGE_CURVE ( 'NONE', #104, #208, #39, .T. ) ;
#385 = ADVANCED_FACE ( 'NONE', ( #191 ), #170, .F. ) ;
#386 = CC_DESIGN_APPROVAL ( #319, ( #179 ) ) ;
#387 = DIRECTION ( 'NONE',  ( 1.000000000000000000, 0.0000000000000000000, 0.0000000000000000000 ) ) ;
ENDSEC;
END-ISO-10303-21;
