ISO-10303-21;
HEADER;
FILE_DESCRIPTION (( 'STEP AP203' ),
    '1' );
FILE_NAME ('TAP COLLET ER 25G  14.0  X 11.2.STEP',
    '2019-04-09T10:22:30',
    ( '' ),
    ( '' ),
    'SwSTEP 2.0',
    'SolidWorks 2014',
    '' );
FILE_SCHEMA (( 'CONFIG_CONTROL_DESIGN' ));
ENDSEC;

DATA;
#1 = DATE_AND_TIME ( #81, #161 ) ;
#2 = PLANE ( 'NONE',  #331 ) ;
#3 = APPROVAL ( #104, 'UNSPECIFIED' ) ;
#4 = EDGE_LOOP ( 'NONE', ( #279, #296, #139, #91 ) ) ;
#5 = EDGE_CURVE ( 'NONE', #101, #192, #208, .T. ) ;
#6 = DIRECTION ( 'NONE',  ( -0.0000000000000000000, -0.0000000000000000000, 1.000000000000000000 ) ) ;
#7 = FACE_OUTER_BOUND ( 'NONE', #53, .T. ) ;
#8 = ADVANCED_FACE ( 'NONE', ( #377 ), #140, .F. ) ;
#9 = CARTESIAN_POINT ( 'NONE',  ( 0.0000000000000000000, 13.03657776635556700, 7.842050807568883300 ) ) ;
#10 = VERTEX_POINT ( 'NONE', #17 ) ;
#11 = ADVANCED_FACE ( 'NONE', ( #198 ), #33, .T. ) ;
#12 = PERSON_AND_ORGANIZATION ( #328, #170 ) ;
#13 = LINE ( 'NONE', #47, #165 ) ;
#14 = DIRECTION ( 'NONE',  ( -0.0000000000000000000, -0.0000000000000000000, 1.000000000000000000 ) ) ;
#15 = EDGE_CURVE ( 'NONE', #192, #101, #282, .T. ) ;
#16 = DATE_TIME_ROLE ( 'classification_date' ) ;
#17 = CARTESIAN_POINT ( 'NONE',  ( 9.408710285118862900, 1.374377508408924700E-015, 33.65566924038402900 ) ) ;
#18 = ORIENTED_EDGE ( 'NONE', *, *, #378, .T. ) ;
#19 = VERTEX_POINT ( 'NONE', #63 ) ;
#20 = DIRECTION ( 'NONE',  ( -0.0000000000000000000, -0.0000000000000000000, 1.000000000000000000 ) ) ;
#21 = FACE_OUTER_BOUND ( 'NONE', #297, .T. ) ;
#22 = ORIENTED_EDGE ( 'NONE', *, *, #348, .F. ) ;
#23 = ORIENTED_EDGE ( 'NONE', *, *, #73, .F. ) ;
#24 = AXIS2_PLACEMENT_3D ( 'NONE', #233, #375, #351 ) ;
#25 = PRODUCT ( 'TAP COLLET ER 25G  14.0  X 11.2', 'TAP COLLET ER 25G  14.0  X 11.2', '', ( #106 ) ) ;
#26 = CARTESIAN_POINT ( 'NONE',  ( -13.03657776635556700, 0.0000000000000000000, 7.842050807568876200 ) ) ;
#27 = FACE_OUTER_BOUND ( 'NONE', #202, .T. ) ;
#28 = CIRCLE ( 'NONE', #236, 13.03657776635556700 ) ;
#29 = DIRECTION ( 'NONE',  ( 0.0000000000000000000, 0.0000000000000000000, -1.000000000000000000 ) ) ;
#30 = LOCAL_TIME ( 15, 52, 30.00000000000000000, #113 ) ;
#31 = CARTESIAN_POINT ( 'NONE',  ( 11.00000000000000000, 0.0000000000000000000, 7.842050807568890400 ) ) ;
#32 = CARTESIAN_POINT ( 'NONE',  ( -13.03657776635556700, 0.0000000000000000000, 7.842050807568876200 ) ) ;
#33 = CYLINDRICAL_SURFACE ( 'NONE', #268, 11.00000000000000000 ) ;
#34 = ADVANCED_FACE ( 'NONE', ( #124, #183 ), #306, .F. ) ;
#35 = VECTOR ( 'NONE', #20, 1000.000000000000000 ) ;
#36 = CARTESIAN_POINT ( 'NONE',  ( 0.0000000000000000000, 0.0000000000000000000, 7.842050807568890400 ) ) ;
#37 = ORIENTED_EDGE ( 'NONE', *, *, #173, .F. ) ;
#38 = CARTESIAN_POINT ( 'NONE',  ( 0.0000000000000000000, 0.0000000000000000000, 33.60000000000000100 ) ) ;
#39 = LINE ( 'NONE', #175, #155 ) ;
#40 = PERSON_AND_ORGANIZATION_ROLE ( 'creator' ) ;
#41 = CALENDAR_DATE ( 2019, 9, 4 ) ;
#42 =( GEOMETRIC_REPRESENTATION_CONTEXT ( 3 ) GLOBAL_UNCERTAINTY_ASSIGNED_CONTEXT ( ( #373 ) ) GLOBAL_UNIT_ASSIGNED_CONTEXT ( ( #115, #260, #189 ) ) REPRESENTATION_CONTEXT ( 'NONE', 'WORKASPACE' ) );
#43 = APPROVAL_STATUS ( 'not_yet_approved' ) ;
#44 = AXIS2_PLACEMENT_3D ( 'NONE', #332, #295, #264 ) ;
#45 = FACE_BOUND ( 'NONE', #242, .T. ) ;
#46 = DIRECTION ( 'NONE',  ( 0.0000000000000000000, 0.0000000000000000000, -1.000000000000000000 ) ) ;
#47 = CARTESIAN_POINT ( 'NONE',  ( -10.26217568973925200, 1.256754061072695800E-015, 0.0000000000000000000 ) ) ;
#48 = PERSON_AND_ORGANIZATION ( #328, #170 ) ;
#49 = FACE_OUTER_BOUND ( 'NONE', #157, .T. ) ;
#50 = DIRECTION ( 'NONE',  ( -0.0000000000000000000, -0.0000000000000000000, 1.000000000000000000 ) ) ;
#51 = AXIS2_PLACEMENT_3D ( 'NONE', #38, #83, #108 ) ;
#52 = CARTESIAN_POINT ( 'NONE',  ( 0.0000000000000000000, 0.0000000000000000000, 0.0000000000000000000 ) ) ;
#53 = EDGE_LOOP ( 'NONE', ( #193, #172, #224, #255 ) ) ;
#54 = CARTESIAN_POINT ( 'NONE',  ( -10.26217568973925200, 1.424397449982127500E-015, 0.0000000000000000000 ) ) ;
#55 = DIRECTION ( 'NONE',  ( 0.0000000000000000000, 0.0000000000000000000, -1.000000000000000000 ) ) ;
#56 = COORDINATED_UNIVERSAL_TIME_OFFSET ( 5, 30, .AHEAD. ) ;
#57 = CARTESIAN_POINT ( 'NONE',  ( 0.0000000000000000000, 0.0000000000000000000, 4.742050807568884500 ) ) ;
#58 = AXIS2_PLACEMENT_3D ( 'NONE', #357, #207, #46 ) ;
#59 = DIRECTION ( 'NONE',  ( -0.0000000000000000000, -0.0000000000000000000, 1.000000000000000000 ) ) ;
#60 = PRODUCT_RELATED_PRODUCT_CATEGORY ( 'detail', '', ( #25 ) ) ;
#61 = DIRECTION ( 'NONE',  ( 1.000000000000000000, 0.0000000000000000000, 0.0000000000000000000 ) ) ;
#62 = VERTEX_POINT ( 'NONE', #275 ) ;
#63 = CARTESIAN_POINT ( 'NONE',  ( 10.26217568973925200, 0.0000000000000000000, 0.0000000000000000000 ) ) ;
#64 = ADVANCED_FACE ( 'NONE', ( #27 ), #343, .T. ) ;
#65 = EDGE_LOOP ( 'NONE', ( #112, #177 ) ) ;
#66 = EDGE_LOOP ( 'NONE', ( #382, #182 ) ) ;
#67 = CC_DESIGN_SECURITY_CLASSIFICATION ( #287, ( #98 ) ) ;
#68 = LOCAL_TIME ( 15, 52, 30.00000000000000000, #151 ) ;
#69 = EDGE_CURVE ( 'NONE', #212, #234, #28, .T. ) ;
#70 = AXIS2_PLACEMENT_3D ( 'NONE', #176, #211, #291 ) ;
#71 = CC_DESIGN_APPROVAL ( #87, ( #287 ) ) ;
#72 = APPROVAL_ROLE ( '' ) ;
#73 = EDGE_CURVE ( 'NONE', #80, #234, #191, .T. ) ;
#74 = ORIENTED_EDGE ( 'NONE', *, *, #315, .F. ) ;
#75 = CIRCLE ( 'NONE', #228, 11.00000000000000000 ) ;
#76 = APPLICATION_PROTOCOL_DEFINITION ( 'international standard', 'config_control_design', 1994, #261 ) ;
#77 = ORIENTED_EDGE ( 'NONE', *, *, #5, .F. ) ;
#78 = AXIS2_PLACEMENT_3D ( 'NONE', #88, #266, #293 ) ;
#79 = CLOSED_SHELL ( 'NONE', ( #342, #128, #11, #64, #310, #369, #34, #313, #318, #135, #349, #8 ) ) ;
#80 = VERTEX_POINT ( 'NONE', #215 ) ;
#81 = CALENDAR_DATE ( 2019, 9, 4 ) ;
#82 = CIRCLE ( 'NONE', #78, 13.00000000000000000 ) ;
#83 = DIRECTION ( 'NONE',  ( -0.0000000000000000000, -0.0000000000000000000, 1.000000000000000000 ) ) ;
#84 = EDGE_CURVE ( 'NONE', #62, #184, #179, .T. ) ;
#85 = AXIS2_PLACEMENT_3D ( 'NONE', #361, #55, #267 ) ;
#86 = DIRECTION ( 'NONE',  ( 0.0000000000000000000, 0.0000000000000000000, 1.000000000000000000 ) ) ;
#87 = APPROVAL ( #43, 'UNSPECIFIED' ) ;
#88 = CARTESIAN_POINT ( 'NONE',  ( 0.0000000000000000000, 0.0000000000000000000, 4.742050807568884500 ) ) ;
#89 = DIRECTION ( 'NONE',  ( -0.0000000000000000000, -0.0000000000000000000, 1.000000000000000000 ) ) ;
#90 = CARTESIAN_POINT ( 'NONE',  ( -11.00000000000000000, 1.347111479062088400E-015, 7.842050807568890400 ) ) ;
#91 = ORIENTED_EDGE ( 'NONE', *, *, #200, .F. ) ;
#92 = ORIENTED_EDGE ( 'NONE', *, *, #123, .F. ) ;
#93 = CC_DESIGN_DATE_AND_TIME_ASSIGNMENT ( #353, #16, ( #287 ) ) ;
#94 = PERSON_AND_ORGANIZATION ( #328, #170 ) ;
#95 = FACE_OUTER_BOUND ( 'NONE', #168, .T. ) ;
#96 = DIRECTION ( 'NONE',  ( -0.0000000000000000000, -0.0000000000000000000, 1.000000000000000000 ) ) ;
#97 = ORIENTED_EDGE ( 'NONE', *, *, #298, .F. ) ;
#98 = PRODUCT_DEFINITION_FORMATION_WITH_SPECIFIED_SOURCE ( 'ANY', '', #25, .NOT_KNOWN. ) ;
#99 = CARTESIAN_POINT ( 'NONE',  ( 13.03657776635556700, 1.596520323340289600E-015, 7.842050807568876200 ) ) ;
#100 = CARTESIAN_POINT ( 'NONE',  ( 0.0000000000000000000, 0.0000000000000000000, 7.842050807568876200 ) ) ;
#101 = VERTEX_POINT ( 'NONE', #31 ) ;
#102 = LINE ( 'NONE', #99, #246 ) ;
#103 = ORIENTED_EDGE ( 'NONE', *, *, #298, .T. ) ;
#104 = APPROVAL_STATUS ( 'not_yet_approved' ) ;
#105 = AXIS2_PLACEMENT_3D ( 'NONE', #269, #29, #379 ) ;
#106 = MECHANICAL_CONTEXT ( 'NONE', #261, 'mechanical' ) ;
#107 = ORIENTED_EDGE ( 'NONE', *, *, #200, .T. ) ;
#108 = DIRECTION ( 'NONE',  ( 1.000000000000000000, 0.0000000000000000000, 0.0000000000000000000 ) ) ;
#109 = CIRCLE ( 'NONE', #119, 13.03657776635556700 ) ;
#110 = CIRCLE ( 'NONE', #160, 9.012603057622234500 ) ;
#111 = CC_DESIGN_PERSON_AND_ORGANIZATION_ASSIGNMENT ( #280, #197, ( #287 ) ) ;
#112 = ORIENTED_EDGE ( 'NONE', *, *, #378, .F. ) ;
#113 = COORDINATED_UNIVERSAL_TIME_OFFSET ( 5, 30, .AHEAD. ) ;
#114 = DESIGN_CONTEXT ( 'detailed design', #194, 'design' ) ;
#115 =( LENGTH_UNIT ( ) NAMED_UNIT ( * ) SI_UNIT ( .MILLI., .METRE. ) );
#116 = CARTESIAN_POINT ( 'NONE',  ( 0.0000000000000000000, 0.0000000000000000000, 0.0000000000000000000 ) ) ;
#117 = EDGE_CURVE ( 'NONE', #153, #148, #110, .T. ) ;
#118 = LINE ( 'NONE', #227, #35 ) ;
#119 = AXIS2_PLACEMENT_3D ( 'NONE', #321, #374, #319 ) ;
#120 = CARTESIAN_POINT ( 'NONE',  ( 13.03657776635556700, 1.596520323340289600E-015, 7.842050807568876200 ) ) ;
#121 = CARTESIAN_POINT ( 'NONE',  ( 9.012603057622234500, 0.0000000000000000000, 34.00000000000000000 ) ) ;
#122 = LOCAL_TIME ( 15, 52, 30.00000000000000000, #205 ) ;
#123 = EDGE_CURVE ( 'NONE', #10, #212, #102, .T. ) ;
#124 = FACE_BOUND ( 'NONE', #65, .T. ) ;
#125 = DIRECTION ( 'NONE',  ( -1.000000000000000000, 0.0000000000000000000, -0.0000000000000000000 ) ) ;
#126 = CYLINDRICAL_SURFACE ( 'NONE', #337, 11.00000000000000000 ) ;
#127 = ADVANCED_BREP_SHAPE_REPRESENTATION ( 'TAP COLLET ER 25G  14.0  X 11.2', ( #300, #131 ), #42 ) ;
#128 = ADVANCED_FACE ( 'NONE', ( #95 ), #162, .T. ) ;
#129 = DIRECTION ( 'NONE',  ( -1.000000000000000000, 0.0000000000000000000, -0.0000000000000000000 ) ) ;
#130 = ORIENTED_EDGE ( 'NONE', *, *, #117, .T. ) ;
#131 = AXIS2_PLACEMENT_3D ( 'NONE', #116, #86, #248 ) ;
#132 = APPROVAL_DATE_TIME ( #214, #3 ) ;
#133 = CC_DESIGN_PERSON_AND_ORGANIZATION_ASSIGNMENT ( #360, #134, ( #98 ) ) ;
#134 = PERSON_AND_ORGANIZATION_ROLE ( 'design_supplier' ) ;
#135 = ADVANCED_FACE ( 'NONE', ( #21 ), #292, .T. ) ;
#136 = CIRCLE ( 'NONE', #364, 10.26217568973925200 ) ;
#137 = PERSON_AND_ORGANIZATION_ROLE ( 'design_owner' ) ;
#138 = DIRECTION ( 'NONE',  ( 1.000000000000000000, 0.0000000000000000000, 0.0000000000000000000 ) ) ;
#139 = ORIENTED_EDGE ( 'NONE', *, *, #173, .T. ) ;
#140 = PLANE ( 'NONE',  #283 ) ;
#141 = APPROVAL_PERSON_ORGANIZATION ( #219, #3, #316 ) ;
#142 = DIRECTION ( 'NONE',  ( 1.000000000000000000, 0.0000000000000000000, 0.0000000000000000000 ) ) ;
#143 = EDGE_CURVE ( 'NONE', #265, #218, #82, .T. ) ;
#144 = PRODUCT_DEFINITION ( 'UNKNOWN', '', #98, #114 ) ;
#145 = DIRECTION ( 'NONE',  ( 1.000000000000000000, 0.0000000000000000000, 0.0000000000000000000 ) ) ;
#146 = ORIENTED_EDGE ( 'NONE', *, *, #289, .F. ) ;
#147 = CARTESIAN_POINT ( 'NONE',  ( 0.0000000000000000000, 0.0000000000000000000, 34.00000000000000000 ) ) ;
#148 = VERTEX_POINT ( 'NONE', #204 ) ;
#149 = ORIENTED_EDGE ( 'NONE', *, *, #289, .T. ) ;
#150 = CARTESIAN_POINT ( 'NONE',  ( 0.0000000000000000000, 0.0000000000000000000, 0.0000000000000000000 ) ) ;
#151 = COORDINATED_UNIVERSAL_TIME_OFFSET ( 5, 30, .AHEAD. ) ;
#152 = EDGE_CURVE ( 'NONE', #80, #148, #171, .T. ) ;
#153 = VERTEX_POINT ( 'NONE', #121 ) ;
#154 = CARTESIAN_POINT ( 'NONE',  ( 0.0000000000000000000, 0.0000000000000000000, 7.842050807568890400 ) ) ;
#155 = VECTOR ( 'NONE', #383, 1000.000000000000200 ) ;
#156 = DIRECTION ( 'NONE',  ( 1.000000000000000000, 0.0000000000000000000, 0.0000000000000000000 ) ) ;
#157 = EDGE_LOOP ( 'NONE', ( #74, #305, #231, #243 ) ) ;
#158 = DIRECTION ( 'NONE',  ( -0.0000000000000000000, -0.0000000000000000000, 1.000000000000000000 ) ) ;
#159 = ORIENTED_EDGE ( 'NONE', *, *, #73, .T. ) ;
#160 = AXIS2_PLACEMENT_3D ( 'NONE', #147, #314, #336 ) ;
#161 = LOCAL_TIME ( 15, 52, 30.00000000000000000, #237 ) ;
#162 = CONICAL_SURFACE ( 'NONE', #105, 13.03657776635556700, 0.1396263401595396500 ) ;
#163 = PERSON_AND_ORGANIZATION_ROLE ( 'creator' ) ;
#164 = AXIS2_PLACEMENT_3D ( 'NONE', #288, #229, #254 ) ;
#165 = VECTOR ( 'NONE', #345, 1000.000000000000200 ) ;
#166 = EDGE_LOOP ( 'NONE', ( #146, #317 ) ) ;
#167 = DIRECTION ( 'NONE',  ( 0.0000000000000000000, 0.0000000000000000000, -1.000000000000000000 ) ) ;
#168 = EDGE_LOOP ( 'NONE', ( #249, #308, #258, #23 ) ) ;
#169 = CARTESIAN_POINT ( 'NONE',  ( -13.00000000000000000, 1.592040838891559100E-015, 4.742050807568884500 ) ) ;
#170 = ORGANIZATION ( 'UNSPECIFIED', 'UNSPECIFIED', '' ) ;
#171 = CIRCLE ( 'NONE', #70, 0.4000000000000010200 ) ;
#172 = ORIENTED_EDGE ( 'NONE', *, *, #307, .T. ) ;
#173 = EDGE_CURVE ( 'NONE', #10, #153, #333, .T. ) ;
#174 = DIRECTION ( 'NONE',  ( -0.0000000000000000000, -0.0000000000000000000, 1.000000000000000000 ) ) ;
#175 = CARTESIAN_POINT ( 'NONE',  ( 10.26217568973925200, 0.0000000000000000000, 0.0000000000000000000 ) ) ;
#176 = CARTESIAN_POINT ( 'NONE',  ( -9.012603057622234500, 1.103725548650271700E-015, 33.60000000000000100 ) ) ;
#177 = ORIENTED_EDGE ( 'NONE', *, *, #84, .F. ) ;
#178 = APPROVAL ( #247, 'UNSPECIFIED' ) ;
#179 = CIRCLE ( 'NONE', #221, 11.00000000000000000 ) ;
#180 = DIRECTION ( 'NONE',  ( 1.000000000000000000, 0.0000000000000000000, 0.0000000000000000000 ) ) ;
#181 = ORIENTED_EDGE ( 'NONE', *, *, #381, .T. ) ;
#182 = ORIENTED_EDGE ( 'NONE', *, *, #143, .T. ) ;
#183 = FACE_OUTER_BOUND ( 'NONE', #66, .T. ) ;
#184 = VERTEX_POINT ( 'NONE', #385 ) ;
#185 = DIRECTION ( 'NONE',  ( 1.000000000000000000, 0.0000000000000000000, 0.0000000000000000000 ) ) ;
#186 = APPROVAL_DATE_TIME ( #259, #87 ) ;
#187 = CC_DESIGN_PERSON_AND_ORGANIZATION_ASSIGNMENT ( #94, #137, ( #25 ) ) ;
#188 = DIRECTION ( 'NONE',  ( -0.1391731009600587800, 0.0000000000000000000, -0.9902680687415712500 ) ) ;
#189 =( NAMED_UNIT ( * ) SI_UNIT ( $, .STERADIAN. ) SOLID_ANGLE_UNIT ( ) );
#190 = DIRECTION ( 'NONE',  ( -0.0000000000000000000, -0.0000000000000000000, 1.000000000000000000 ) ) ;
#191 = LINE ( 'NONE', #32, #251 ) ;
#192 = VERTEX_POINT ( 'NONE', #90 ) ;
#193 = ORIENTED_EDGE ( 'NONE', *, *, #368, .F. ) ;
#194 = APPLICATION_CONTEXT ( 'configuration controlled 3d designs of mechanical parts and assemblies' ) ;
#195 = APPROVAL_PERSON_ORGANIZATION ( #270, #87, #370 ) ;
#196 = CC_DESIGN_APPROVAL ( #3, ( #98 ) ) ;
#197 = PERSON_AND_ORGANIZATION_ROLE ( 'classification_officer' ) ;
#198 = FACE_OUTER_BOUND ( 'NONE', #222, .T. ) ;
#199 = FACE_OUTER_BOUND ( 'NONE', #376, .T. ) ;
#200 = EDGE_CURVE ( 'NONE', #148, #153, #238, .T. ) ;
#201 = CARTESIAN_POINT ( 'NONE',  ( 0.0000000000000000000, 0.0000000000000000000, 33.60000000000000100 ) ) ;
#202 = EDGE_LOOP ( 'NONE', ( #103, #253, #278, #327 ) ) ;
#203 = EDGE_LOOP ( 'NONE', ( #130, #107 ) ) ;
#204 = CARTESIAN_POINT ( 'NONE',  ( -9.012603057622234500, 1.127980121063915600E-015, 34.00000000000000000 ) ) ;
#205 = COORDINATED_UNIVERSAL_TIME_OFFSET ( 5, 30, .AHEAD. ) ;
#206 = CARTESIAN_POINT ( 'NONE',  ( 0.0000000000000000000, 0.0000000000000000000, 101.8074564848000400 ) ) ;
#207 = DIRECTION ( 'NONE',  ( 0.0000000000000000000, -1.000000000000000000, 0.0000000000000000000 ) ) ;
#208 = CIRCLE ( 'NONE', #303, 11.00000000000000000 ) ;
#209 = DIRECTION ( 'NONE',  ( 1.000000000000000000, 0.0000000000000000000, 0.0000000000000000000 ) ) ;
#210 = FACE_OUTER_BOUND ( 'NONE', #166, .T. ) ;
#211 = DIRECTION ( 'NONE',  ( 1.224646799147353200E-016, 1.000000000000000000, 0.0000000000000000000 ) ) ;
#212 = VERTEX_POINT ( 'NONE', #120 ) ;
#213 = VERTEX_POINT ( 'NONE', #54 ) ;
#214 = DATE_AND_TIME ( #286, #367 ) ;
#215 = CARTESIAN_POINT ( 'NONE',  ( -9.408710285118862900, 0.0000000000000000000, 33.65566924038402900 ) ) ;
#216 = FACE_OUTER_BOUND ( 'NONE', #320, .T. ) ;
#217 = CARTESIAN_POINT ( 'NONE',  ( 0.0000000000000000000, 0.0000000000000000000, 0.0000000000000000000 ) ) ;
#218 = VERTEX_POINT ( 'NONE', #358 ) ;
#219 = PERSON_AND_ORGANIZATION ( #328, #170 ) ;
#220 = APPLICATION_PROTOCOL_DEFINITION ( 'international standard', 'config_control_design', 1994, #194 ) ;
#221 = AXIS2_PLACEMENT_3D ( 'NONE', #57, #301, #185 ) ;
#222 = EDGE_LOOP ( 'NONE', ( #18, #223, #77, #22 ) ) ;
#223 = ORIENTED_EDGE ( 'NONE', *, *, #315, .T. ) ;
#224 = ORIENTED_EDGE ( 'NONE', *, *, #372, .T. ) ;
#225 = DIRECTION ( 'NONE',  ( 0.0000000000000000000, -0.0000000000000000000, 1.000000000000000000 ) ) ;
#226 = PERSON_AND_ORGANIZATION ( #328, #170 ) ;
#227 = CARTESIAN_POINT ( 'NONE',  ( 11.00000000000000000, 0.0000000000000000000, 101.8074564848000400 ) ) ;
#228 = AXIS2_PLACEMENT_3D ( 'NONE', #355, #50, #209 ) ;
#229 = DIRECTION ( 'NONE',  ( -0.0000000000000000000, -0.0000000000000000000, 1.000000000000000000 ) ) ;
#230 = EDGE_CURVE ( 'NONE', #80, #10, #325, .T. ) ;
#231 = ORIENTED_EDGE ( 'NONE', *, *, #348, .T. ) ;
#232 = CIRCLE ( 'NONE', #164, 9.408710285118862900 ) ;
#233 = CARTESIAN_POINT ( 'NONE',  ( 0.0000000000000000000, 0.0000000000000000000, 33.65566924038402900 ) ) ;
#234 = VERTEX_POINT ( 'NONE', #26 ) ;
#235 = CARTESIAN_POINT ( 'NONE',  ( 0.0000000000000000000, 0.0000000000000000000, 0.0000000000000000000 ) ) ;
#236 = AXIS2_PLACEMENT_3D ( 'NONE', #100, #59, #302 ) ;
#237 = COORDINATED_UNIVERSAL_TIME_OFFSET ( 5, 30, .AHEAD. ) ;
#238 = CIRCLE ( 'NONE', #44, 9.012603057622234500 ) ;
#239 = CC_DESIGN_PERSON_AND_ORGANIZATION_ASSIGNMENT ( #48, #163, ( #98 ) ) ;
#240 = AXIS2_PLACEMENT_3D ( 'NONE', #241, #304, #125 ) ;
#241 = CARTESIAN_POINT ( 'NONE',  ( 0.0000000000000000000, 13.00000000000000000, 4.742050807568884500 ) ) ;
#242 = EDGE_LOOP ( 'NONE', ( #387, #322 ) ) ;
#243 = ORIENTED_EDGE ( 'NONE', *, *, #15, .F. ) ;
#244 = CARTESIAN_POINT ( 'NONE',  ( -11.00000000000000000, 1.347111479062088400E-015, 101.8074564848000400 ) ) ;
#245 = SHAPE_DEFINITION_REPRESENTATION ( #339, #127 ) ;
#246 = VECTOR ( 'NONE', #272, 1000.000000000000000 ) ;
#247 = APPROVAL_STATUS ( 'not_yet_approved' ) ;
#248 = DIRECTION ( 'NONE',  ( 1.000000000000000000, 0.0000000000000000000, 0.0000000000000000000 ) ) ;
#249 = ORIENTED_EDGE ( 'NONE', *, *, #381, .F. ) ;
#250 = PLANE ( 'NONE',  #350 ) ;
#251 = VECTOR ( 'NONE', #188, 1000.000000000000000 ) ;
#252 = AXIS2_PLACEMENT_3D ( 'NONE', #217, #274, #156 ) ;
#253 = ORIENTED_EDGE ( 'NONE', *, *, #368, .T. ) ;
#254 = DIRECTION ( 'NONE',  ( 1.000000000000000000, 0.0000000000000000000, 0.0000000000000000000 ) ) ;
#255 = ORIENTED_EDGE ( 'NONE', *, *, #143, .F. ) ;
#256 = CC_DESIGN_DATE_AND_TIME_ASSIGNMENT ( #299, #281, ( #144 ) ) ;
#257 = CARTESIAN_POINT ( 'NONE',  ( 0.0000000000000000000, 0.0000000000000000000, 4.742050807568884500 ) ) ;
#258 = ORIENTED_EDGE ( 'NONE', *, *, #69, .T. ) ;
#259 = DATE_AND_TIME ( #347, #30 ) ;
#260 =( NAMED_UNIT ( * ) PLANE_ANGLE_UNIT ( ) SI_UNIT ( $, .RADIAN. ) );
#261 = APPLICATION_CONTEXT ( 'configuration controlled 3d designs of mechanical parts and assemblies' ) ;
#262 = FACE_OUTER_BOUND ( 'NONE', #4, .T. ) ;
#263 = DIRECTION ( 'NONE',  ( 0.0000000000000000000, -0.0000000000000000000, 1.000000000000000000 ) ) ;
#264 = DIRECTION ( 'NONE',  ( 1.000000000000000000, 0.0000000000000000000, 0.0000000000000000000 ) ) ;
#265 = VERTEX_POINT ( 'NONE', #169 ) ;
#266 = DIRECTION ( 'NONE',  ( -0.0000000000000000000, -0.0000000000000000000, 1.000000000000000000 ) ) ;
#267 = DIRECTION ( 'NONE',  ( -1.000000000000000000, 0.0000000000000000000, 0.0000000000000000000 ) ) ;
#268 = AXIS2_PLACEMENT_3D ( 'NONE', #285, #14, #277 ) ;
#269 = CARTESIAN_POINT ( 'NONE',  ( 0.0000000000000000000, 0.0000000000000000000, 7.842050807568876200 ) ) ;
#270 = PERSON_AND_ORGANIZATION ( #328, #170 ) ;
#271 = CC_DESIGN_PERSON_AND_ORGANIZATION_ASSIGNMENT ( #226, #40, ( #144 ) ) ;
#272 = DIRECTION ( 'NONE',  ( 0.1391731009600587800, 1.704378926181474000E-017, -0.9902680687415712500 ) ) ;
#273 = AXIS2_PLACEMENT_3D ( 'NONE', #154, #6, #362 ) ;
#274 = DIRECTION ( 'NONE',  ( -0.0000000000000000000, -0.0000000000000000000, 1.000000000000000000 ) ) ;
#275 = CARTESIAN_POINT ( 'NONE',  ( -11.00000000000000000, 1.347111479062088400E-015, 4.742050807568884500 ) ) ;
#276 = TOROIDAL_SURFACE ( 'NONE', #330, 9.012603057622234500, 0.4000000000000009700 ) ;
#277 = DIRECTION ( 'NONE',  ( 1.000000000000000000, 0.0000000000000000000, 0.0000000000000000000 ) ) ;
#278 = ORIENTED_EDGE ( 'NONE', *, *, #366, .F. ) ;
#279 = ORIENTED_EDGE ( 'NONE', *, *, #152, .F. ) ;
#280 = PERSON_AND_ORGANIZATION ( #328, #170 ) ;
#281 = DATE_TIME_ROLE ( 'creation_date' ) ;
#282 = CIRCLE ( 'NONE', #273, 11.00000000000000000 ) ;
#283 = AXIS2_PLACEMENT_3D ( 'NONE', #344, #167, #129 ) ;
#284 = LINE ( 'NONE', #244, #290 ) ;
#285 = CARTESIAN_POINT ( 'NONE',  ( 0.0000000000000000000, 0.0000000000000000000, 101.8074564848000400 ) ) ;
#286 = CALENDAR_DATE ( 2019, 9, 4 ) ;
#287 = SECURITY_CLASSIFICATION ( '', '', #346 ) ;
#288 = CARTESIAN_POINT ( 'NONE',  ( 0.0000000000000000000, 0.0000000000000000000, 33.65566924038402900 ) ) ;
#289 = EDGE_CURVE ( 'NONE', #234, #212, #109, .T. ) ;
#290 = VECTOR ( 'NONE', #365, 1000.000000000000000 ) ;
#291 = DIRECTION ( 'NONE',  ( -1.000000000000000000, 1.224646799147353200E-016, 0.0000000000000000000 ) ) ;
#292 = CONICAL_SURFACE ( 'NONE', #85, 13.03657776635556700, 0.1396263401595396500 ) ;
#293 = DIRECTION ( 'NONE',  ( 1.000000000000000000, 0.0000000000000000000, 0.0000000000000000000 ) ) ;
#294 = CC_DESIGN_APPROVAL ( #178, ( #144 ) ) ;
#295 = DIRECTION ( 'NONE',  ( -0.0000000000000000000, -0.0000000000000000000, 1.000000000000000000 ) ) ;
#296 = ORIENTED_EDGE ( 'NONE', *, *, #230, .T. ) ;
#297 = EDGE_LOOP ( 'NONE', ( #92, #311, #159, #149 ) ) ;
#298 = EDGE_CURVE ( 'NONE', #19, #213, #371, .T. ) ;
#299 = DATE_AND_TIME ( #380, #68 ) ;
#300 = MANIFOLD_SOLID_BREP ( 'Revolve1', #79 ) ;
#301 = DIRECTION ( 'NONE',  ( -0.0000000000000000000, -0.0000000000000000000, 1.000000000000000000 ) ) ;
#302 = DIRECTION ( 'NONE',  ( 1.000000000000000000, 0.0000000000000000000, 0.0000000000000000000 ) ) ;
#303 = AXIS2_PLACEMENT_3D ( 'NONE', #36, #190, #309 ) ;
#304 = DIRECTION ( 'NONE',  ( 0.0000000000000000000, 0.0000000000000000000, -1.000000000000000000 ) ) ;
#305 = ORIENTED_EDGE ( 'NONE', *, *, #84, .T. ) ;
#306 = PLANE ( 'NONE',  #240 ) ;
#307 = EDGE_CURVE ( 'NONE', #213, #19, #136, .T. ) ;
#308 = ORIENTED_EDGE ( 'NONE', *, *, #123, .T. ) ;
#309 = DIRECTION ( 'NONE',  ( 1.000000000000000000, 0.0000000000000000000, 0.0000000000000000000 ) ) ;
#310 = ADVANCED_FACE ( 'NONE', ( #216 ), #250, .F. ) ;
#311 = ORIENTED_EDGE ( 'NONE', *, *, #230, .F. ) ;
#312 = APPROVAL_DATE_TIME ( #1, #178 ) ;
#313 = ADVANCED_FACE ( 'NONE', ( #49 ), #126, .T. ) ;
#314 = DIRECTION ( 'NONE',  ( -0.0000000000000000000, -0.0000000000000000000, 1.000000000000000000 ) ) ;
#315 = EDGE_CURVE ( 'NONE', #62, #192, #284, .T. ) ;
#316 = APPROVAL_ROLE ( '' ) ;
#317 = ORIENTED_EDGE ( 'NONE', *, *, #69, .F. ) ;
#318 = ADVANCED_FACE ( 'NONE', ( #210, #45 ), #2, .F. ) ;
#319 = DIRECTION ( 'NONE',  ( 1.000000000000000000, 0.0000000000000000000, 0.0000000000000000000 ) ) ;
#320 = EDGE_LOOP ( 'NONE', ( #97, #335 ) ) ;
#321 = CARTESIAN_POINT ( 'NONE',  ( 0.0000000000000000000, 0.0000000000000000000, 7.842050807568876200 ) ) ;
#322 = ORIENTED_EDGE ( 'NONE', *, *, #15, .T. ) ;
#323 = APPROVAL_PERSON_ORGANIZATION ( #12, #178, #72 ) ;
#324 = AXIS2_PLACEMENT_3D ( 'NONE', #235, #174, #61 ) ;
#325 = CIRCLE ( 'NONE', #24, 9.408710285118862900 ) ;
#326 = DIRECTION ( 'NONE',  ( 1.000000000000000000, 0.0000000000000000000, 0.0000000000000000000 ) ) ;
#327 = ORIENTED_EDGE ( 'NONE', *, *, #372, .F. ) ;
#328 = PERSON ( 'UNSPECIFIED', 'UNSPECIFIED', 'UNSPECIFIED', ('UNSPECIFIED'), ('UNSPECIFIED'), ('UNSPECIFIED') ) ;
#329 = DIRECTION ( 'NONE',  ( -0.0000000000000000000, -0.0000000000000000000, 1.000000000000000000 ) ) ;
#330 = AXIS2_PLACEMENT_3D ( 'NONE', #201, #158, #340 ) ;
#331 = AXIS2_PLACEMENT_3D ( 'NONE', #9, #225, #326 ) ;
#332 = CARTESIAN_POINT ( 'NONE',  ( 0.0000000000000000000, 0.0000000000000000000, 34.00000000000000000 ) ) ;
#333 = CIRCLE ( 'NONE', #58, 0.3999999999999975800 ) ;
#334 = DIRECTION ( 'NONE',  ( -0.0000000000000000000, -0.0000000000000000000, 1.000000000000000000 ) ) ;
#335 = ORIENTED_EDGE ( 'NONE', *, *, #307, .F. ) ;
#336 = DIRECTION ( 'NONE',  ( 1.000000000000000000, 0.0000000000000000000, 0.0000000000000000000 ) ) ;
#337 = AXIS2_PLACEMENT_3D ( 'NONE', #206, #329, #138 ) ;
#338 = DIRECTION ( 'NONE',  ( 1.000000000000000000, 0.0000000000000000000, 0.0000000000000000000 ) ) ;
#339 = PRODUCT_DEFINITION_SHAPE ( 'NONE', 'NONE',  #144 ) ;
#340 = DIRECTION ( 'NONE',  ( 1.000000000000000000, 0.0000000000000000000, 0.0000000000000000000 ) ) ;
#341 = ORIENTED_EDGE ( 'NONE', *, *, #152, .T. ) ;
#342 = ADVANCED_FACE ( 'NONE', ( #199 ), #276, .T. ) ;
#343 = CONICAL_SURFACE ( 'NONE', #252, 10.26217568973925200, 0.5235987755982940400 ) ;
#344 = CARTESIAN_POINT ( 'NONE',  ( 0.0000000000000000000, 9.012603057622234500, 34.00000000000000000 ) ) ;
#345 = DIRECTION ( 'NONE',  ( -0.4999999999999957800, 6.123233995736714300E-017, 0.8660254037844410400 ) ) ;
#346 = SECURITY_CLASSIFICATION_LEVEL ( 'unclassified' ) ;
#347 = CALENDAR_DATE ( 2019, 9, 4 ) ;
#348 = EDGE_CURVE ( 'NONE', #184, #101, #118, .T. ) ;
#349 = ADVANCED_FACE ( 'NONE', ( #262 ), #363, .T. ) ;
#350 = AXIS2_PLACEMENT_3D ( 'NONE', #52, #263, #142 ) ;
#351 = DIRECTION ( 'NONE',  ( 1.000000000000000000, 0.0000000000000000000, 0.0000000000000000000 ) ) ;
#352 = ORIENTED_EDGE ( 'NONE', *, *, #117, .F. ) ;
#353 = DATE_AND_TIME ( #41, #122 ) ;
#354 = CARTESIAN_POINT ( 'NONE',  ( 0.0000000000000000000, 0.0000000000000000000, 0.0000000000000000000 ) ) ;
#355 = CARTESIAN_POINT ( 'NONE',  ( 0.0000000000000000000, 0.0000000000000000000, 4.742050807568884500 ) ) ;
#356 = CIRCLE ( 'NONE', #359, 13.00000000000000000 ) ;
#357 = CARTESIAN_POINT ( 'NONE',  ( 9.012603057622234500, 0.0000000000000000000, 33.60000000000000100 ) ) ;
#358 = CARTESIAN_POINT ( 'NONE',  ( 13.00000000000000000, 0.0000000000000000000, 4.742050807568884500 ) ) ;
#359 = AXIS2_PLACEMENT_3D ( 'NONE', #257, #89, #180 ) ;
#360 = PERSON_AND_ORGANIZATION ( #328, #170 ) ;
#361 = CARTESIAN_POINT ( 'NONE',  ( 0.0000000000000000000, 0.0000000000000000000, 7.842050807568876200 ) ) ;
#362 = DIRECTION ( 'NONE',  ( 1.000000000000000000, 0.0000000000000000000, 0.0000000000000000000 ) ) ;
#363 = TOROIDAL_SURFACE ( 'NONE', #51, 9.012603057622234500, 0.4000000000000009700 ) ;
#364 = AXIS2_PLACEMENT_3D ( 'NONE', #354, #96, #338 ) ;
#365 = DIRECTION ( 'NONE',  ( -0.0000000000000000000, -0.0000000000000000000, 1.000000000000000000 ) ) ;
#366 = EDGE_CURVE ( 'NONE', #218, #265, #356, .T. ) ;
#367 = LOCAL_TIME ( 15, 52, 30.00000000000000000, #56 ) ;
#368 = EDGE_CURVE ( 'NONE', #213, #265, #13, .T. ) ;
#369 = ADVANCED_FACE ( 'NONE', ( #7 ), #384, .T. ) ;
#370 = APPROVAL_ROLE ( '' ) ;
#371 = CIRCLE ( 'NONE', #386, 10.26217568973925200 ) ;
#372 = EDGE_CURVE ( 'NONE', #19, #218, #39, .T. ) ;
#373 = UNCERTAINTY_MEASURE_WITH_UNIT (LENGTH_MEASURE( 1.000000000000000100E-005 ), #115, 'distance_accuracy_value', 'NONE');
#374 = DIRECTION ( 'NONE',  ( -0.0000000000000000000, -0.0000000000000000000, 1.000000000000000000 ) ) ;
#375 = DIRECTION ( 'NONE',  ( -0.0000000000000000000, -0.0000000000000000000, 1.000000000000000000 ) ) ;
#376 = EDGE_LOOP ( 'NONE', ( #181, #341, #352, #37 ) ) ;
#377 = FACE_OUTER_BOUND ( 'NONE', #203, .T. ) ;
#378 = EDGE_CURVE ( 'NONE', #184, #62, #75, .T. ) ;
#379 = DIRECTION ( 'NONE',  ( -1.000000000000000000, 0.0000000000000000000, 0.0000000000000000000 ) ) ;
#380 = CALENDAR_DATE ( 2019, 9, 4 ) ;
#381 = EDGE_CURVE ( 'NONE', #10, #80, #232, .T. ) ;
#382 = ORIENTED_EDGE ( 'NONE', *, *, #366, .T. ) ;
#383 = DIRECTION ( 'NONE',  ( 0.4999999999999957800, 0.0000000000000000000, 0.8660254037844410400 ) ) ;
#384 = CONICAL_SURFACE ( 'NONE', #324, 10.26217568973925200, 0.5235987755982940400 ) ;
#385 = CARTESIAN_POINT ( 'NONE',  ( 11.00000000000000000, 0.0000000000000000000, 4.742050807568884500 ) ) ;
#386 = AXIS2_PLACEMENT_3D ( 'NONE', #150, #334, #145 ) ;
#387 = ORIENTED_EDGE ( 'NONE', *, *, #5, .T. ) ;
ENDSEC;
END-ISO-10303-21;
